rock
 
|tablatures   |lyrics   |discussion forums   |more tabs @ XGuitar.com

Red Hot Chili Peppers tabs

Cant Stop guitar tab

From: Deafened <>
Artist:	Red Hot Chili Peppers
Album:	By The Way
Song:	Can't Stop

INTRO RIFF
                               REPEAT 4 TIMES
E------------------------------
B------------------------------
G------------------------------
D------------------------------
A---5-7--5-7--5-7--5-7--5-7-7-7
E------------------------------

MAIN RIFF

E-----------------------------------------------------------------------------
B-----------------------------------------------------------------------------
G---7-9------7-9--------7-9------7-9------7-9-----7-9--------7-9-----7-9------
D----------------------0---0-0-0----0-0-0-------------------------------------
A--7----7-7-7-----7-7-7-------------------------------------------------------
E----------------------------------------7---7-7-7---7-7-7--8---8-8-8----8-8-8

 that's all i know from this, i haven't typed it out very well (sorry!)
 so i hope it's ok

  development and support by
dmitry ivanov