rock
 
|tablatures   |lyrics   |discussion forums   |more tabs @ XGuitar.com

Red Hot Chili Peppers tabs

Californication solo from VMA 2000 guitar tab

Red Hot Chili Peppers
Californication
VMA 2000

This is my take on John Frusciante's solo at the 2000 MTV Video Music
Awards.  It sounds nearly perfect to me, execpt I might have an error
or 2 in the middle, but it sounds right for the rest of it.  As 
for timing, you'll have to find a recording of the VMA, I didn't
really do a lot with it in this tab.


e ----------------------------------------------------------- 
B -----14-----------------14--------------------------------- 
G --14------11/13\11---14------11/13\11--11-11-11-11p9------- 
D ----------------------------------------------------------- 
A ----------------------------------------------------------- 
E ----------------------------------------------------------- 

e --------------------------------------------14-14-14-14---- 
B ----------------------------------------14----------------- 
G -9-9-9-9-9-9----------------9-11-11--14-------------------- 
D -------------11-11-11--9-11-------------------------------- 
A ----------------------------------------------------------- 
E ----------------------------------------------------------- 

e -16-17-16-14-12-14-12----12-------------------------------- 
B -10-------------------14----14-14-14--14-14-14--14-14-14--- 
G ----------------------------------------------------------- 
D ----------------------------------------------------------- 
A ----------------------------------------------------------- 
E ----------------------------------------------------------- 

e ----------------12----------------------------------------- 
B -14-12-14-12-14----14-14-14--14-14-14--14-14-14------------
G ----------------------------------------------------------- 
D ----------------------------------------------------------- 
A ----------------------------------------------------------- 
E ----------------------------------------------------------- 

e ----------------12--14-14-14--14-14-14--21-21-21-21-21--21- 
B -14-12-14-12-14-------------------------------------------- 
G ----------------------------------------------------------- 
D ----------------------------------------------------------- 
A ----------------------------------------------------------- 
E ----------------------------------------------------------- 
  development and support by
dmitry ivanov