rock
 
|tablatures   |lyrics   |discussion forums   |more tabs @ XGuitar.com

Red Hot Chili Peppers tabs

By The Way bass tab

Song: By The Way
Artist: Red Hot Chili Peppers
Album: By The Way (2002)

Words and Music by Red Hot Chili Peppers
Transcribed by Aidan Hampson

Bass: Tuning: D A D G



 Verse

|-----------------|-----------------|
|-3-3-3-3-3-3-3-3-|-----------------|
|-----------------|-3-3-3-3-3-3-3-3-|
|-----------------|-----------------|


|-------------------------|--------------------------|
|-------------------------|--------------------------|
|-12-12-12-12-12-12-12-12-|-12-12-12-12-12-12-12-12/-|
|-------------------------|--------------------------|


|-------------------------|-------------------------|
|-------------------------|-------------------------|
|-20-20-20-20-20-20-20-20-|-19-19-19-19-19-19-19-19-|
|-------------------------|-------------------------|


|-------------------------|--------------------------||
|-19-19-19-19-19-19-19-19-|-19-19-19-19-19-19-19-19\-||
|-------------------------|--------------------------||
|-------------------------|--------------------------||


 Bridge
|-------------------------------|-------------------------------|
|-----------3-(3)-x-------------|-----------3-(3)-x-------------|
|-----3-5-x---------3-5-x-x-3-5-|-----3-5-x---------3-5-x-x-----|
|-0-0---------------------------|-0-0-----------------------5-7-|


|-------------------------------|-----------------------------|
|-----------3-(3)-x-------------|-----------------------------|
|-----3-5-x---------3-5-x-x-3-5-|-----3-5-x-5-x-x-6-6-6-6-6-6-|
|-0-0---------------------------|-0-0-------------------------|


  $
|-------------------------------|-------------------------------|
|-----------3-(3)-x-------------|-----------3-(3)-x-------------|
|-----3-5-x---------3-5-x-x-3-5-|-----3-5-x---------3-5-x-x-----|
|-0-0---------------------------|-0-0-----------------------5-7-|


|-------------------------------|-----------------------------|
|-----------3-(3)-x-------------|-----------------------------|
|-----3-5-x---------3-5-x-x-3-5-|-----3-5-x-5-x-x-6-6-6-6-6-6-|
|-0-0---------------------------|-0-0-------------------------|


|-------------------------------|-------------------------------|
|-----------3-(3)-x-------------|-----------3-(3)-x-------------|
|-----3-5-x---------3-5-x-x-3-5-|-----3-5-x---------3-5-x-x-----|
|-0-0---------------------------|-0-0-----------------------5-7-|


|-------------------------------|-----------------------------|
|-----------3-(3)-x-------------|-----------------------------|
|-----3-5-x---------3-5-x-x-3-5-|-----3-5-x-5-x-x-6-6-6-6-6-6-|
|-0-0---------------------------|-0-0-------------------------|


|-------------------------------|-------------------------------|
|-----------3-(3)-x-------------|-----------3-(3)-x-------------|
|-----3-5-x---------3-5-x-x-3-5-|-----3-5-x---------3-5-x-x-----|
|-0-0---------------------------|-0-0-----------------------5-7-|


                                                     To Coda
|-------------------------------|-----------------------------||
|-----------3-(3)-x-------------|-----------------------------||
|-----3-5-x---------3-5-x-x-3-5-|-----3-5-x-5-x-x-6-6-6-6-6-6-||
|-0-0---------------------------|-0-0-------------------------||


 Chorus
|------------------|-------------------------|
|-3--3-3-3-3-3/-10-|-(10)--10-10-10-10-10-10-|
|------------------|-------------------------|
|------------------|-------------------------|


|-----------------------|-----------------------------|
|-12--12-12-12-12-12-12-|-(12)--12-12-12-12-12-10-----|
|-----------------------|-------------------------12--|
|-----------------------|-----------------------------|


|------------------|-------------------------|
|-3--3-3-3-3-3/-10-|-(10)--10-10-10-10-10-10-|
|------------------|-------------------------|
|------------------|-------------------------|


|----------------|-------------------||
|-7--7-7-7-7-7-7-|-(7)-8-8-8-8-8-8-8-||
|----------------|-------------------||
|----------------|-------------------||


 Interlude
|-------------------------------|-------------------------------|
|-----------3-(3)-x-------------|-----------3-(3)-x-------------|
|-----3-5-x---------3-5-x-x-3-5-|-----3-5-x---------3-5-x-x-----|
|-0-0---------------------------|-0-0-----------------------5-7-|


                                                D.S. al Coda
|-------------------------------|-----------------------------||
|-----------3-(3)-x-------------|-----------------------------||
|-----3-5-x---------3-5-x-x-3-5-|-----3-5-x-5-x-x-6-6-6-6-6-6-||
|-0-0---------------------------|-0-0-------------------------||


  &
|-----|
|-----|
|-----|
|-----|


|-----------------|-----------------|
|-3-3-3-3-3-3-3-3-|-----------------|
|-----------------|-3-3-3-3-3-3-3-3-|
|-----------------|-----------------|


|-------------------------|--------------------------|
|-------------------------|--------------------------|
|-12-12-12-12-12-12-12-12-|-12-12-12-12-12-12-12-12/-|
|-------------------------|--------------------------|


|-------------------------|-------------------------|
|-------------------------|-------------------------|
|-20-20-20-20-20-20-20-20-|-19-19-19-19-19-19-19-19-|
|-------------------------|-------------------------|


|-------------------------|--------------------------||
|-19-19-19-19-19-19-19-19-|-19-19-19-19-19-19-19-19\-||
|-------------------------|--------------------------||
|-------------------------|--------------------------||


 Interlude
|-------------------------------|-------------------------------|
|-----------3-(3)-x-------------|-----------3-(3)-x-------------|
|-----3-5-x---------3-5-x-x-3-5-|-----3-5-x---------3-5-x-x-----|
|-0-0---------------------------|-0-0-----------------------5-7-|


|-------------------------------|-----------------------------|
|-----------3-(3)-x-------------|-----------------------------|
|-----3-5-x---------3-5-x-x-3-5-|-----3-5-x-5-x-x-6-6-6-6-6-6-|
|-0-0---------------------------|-0-0-------------------------|


|-------------------------------|-------------------------------|
|-----------3-(3)-x-------------|-----------3-(3)-x-------------|
|-----3-5-x---------3-5-x-x-3-5-|-----3-5-x---------3-5-x-x-----|
|-0-0---------------------------|-0-0-----------------------5-7-|


|-------------------------------|-----------------------------|
|-----------3-(3)-x-------------|-----------------------------|
|-----3-5-x---------3-5-x-x-3-5-|-----3-5-x-5-x-x-6-6-6-6-6-6-|
|-0-0---------------------------|-0-0-------------------------|


|-------------------------------|-------------------------------|
|-----------3-(3)-x-------------|-----------3-(3)-x-------------|
|-----3-5-x---------3-5-x-x-3-5-|-----3-5-x---------3-5-x-x-----|
|-0-0---------------------------|-0-0-----------------------5-7-|


|-------------------------------|-----------------------------||
|-----------3-(3)-x-------------|-----------------------------||
|-----3-5-x---------3-5-x-x-3-5-|-----3-5-x-5-5-5-5-5-5-5-5-5-||
|-0-0---------------------------|-0-0-------------------------||


 Chorus
|------------------|-------------------------|
|-3--3-3-3-3-3/-10-|-(10)--10-10-10-10-10-10-|
|------------------|-------------------------|
|------------------|-------------------------|


|-----------------------|---------------------------------|
|-12--12-12-12-12-12-12-|-(12)-10-(10)--------------------|
|-----------------------|--------------12-(12)-12-10-12---|
|-----------------------|---------------------------------|


|------------------|-------------------------|
|-3--3-3-3-3-3/-10-|-(10)--10-10-10-10-10-10-|
|------------------|-------------------------|
|------------------|-------------------------|


|----------------|-------------------|
|-7--7-7-7-7-7-7-|-(7)-8-8-8-8-8-8-5-|
|----------------|-------------------|
|----------------|-------------------|


|-----------------|-----------------------|
|----------7-8-10-|-(10)--10-10-10-8-10-8-|
|-8--8-8-8--------|-----------------------|
|-----------------|-----------------------|


|-----------------------|----------------------------|
|-12--12-12-12-12-12-12-|-(12)-12-12-12-12/-14-14-12-|
|-----------------------|----------------------------|
|-----------------------|----------------------------|


|------------------|-------------------------|
|-3--3-3-3-3-3/-10-|-(10)--10-10-10-10-10-10-|
|------------------|-------------------------|
|------------------|-------------------------|


|----------------|-------------------|
|-7--7-7-7-7-7-7-|-(7)-8-8-8-8-8-8-8-|
|----------------|-------------------|
|----------------|-------------------|
  development and support by
dmitry ivanov