rock
 
|tablatures   |lyrics   |discussion forums   |more tabs @ XGuitar.com

Red Hot Chili Peppers tabs

Baby Appeal bass tab

Verse 1
G|---------------------------|----------------------------------------|
D|---------------------------|----------------------------------------|
A|--9--9-9-7-9------9--------|--9--9-9-7-9-------9--------------------|
E|-------------5-7-9---------|-------------5-7-9---2-2-0-2-0-2-2-0-2--|

G|----------------------------|----------------------------------------|
D|----------------------------|----------------------------------------|
A|--5--5-5-3-5-----3-5--------|--9--9-9-7-9-------9--------------------|
E|-------------3-5------------|-------------5-7-9---2-2-0-2-0-2-2-0-2--|

Chorus 1 (Itīs possible that Flea slaps on the Chorus, not sure)
G|-------------12----------------| (x4)
D|---------/14-------------------|
A|-----4-5------------4-5--------|
E|--0-------------0-x-----0-3-5--|

Verse 2
G|----------------------------|----------------------------------------| (x4)
D|----------------------------|----------------------------------------|
A|--9--9-9-7-9-------9--------|--9--9-9-7-9-------9--------------------|
E|-------------5-7-9----------|-------------5-7-9---2-2-0-2-0-2-2-0-2--|

Chorus 2 (Same as Chorus 1)

Guitar Solo
G|-------------| x7 then G|----------|
D|-------------|         D|----------|
A|-------------|         A|----------|
E|--0-0---0-0--|         E|--3--/~7--|

Interlude
G|--------------------------------------|
D|--------------------------------------|
A|--------------------------------------|
E|--2------x2-------2-------2-------\0--|

Verse 3 (Same as Verse 1)

Ending
G|----------------------------------|
D|----------------------------------|
A|-----7-5-4-5-4--------------------|
E|---------------~5------0-0---0-0--|
  development and support by
dmitry ivanov