rock
 
|tablatures   |lyrics   |discussion forums   |more tabs @ XGuitar.com

Red Hot Chili Peppers tabs

Animal Bar bass tab

Band:  Red Hot Chili Peppers
Title: Animal Bar
Album: Stadium Arcadium
Tabbed by: Jon Turner jrt5024@gmail.com
Tuning: DADG (Drop D)

My favorite song off the new album. It reminds me a lot
of The Middle by Jimmy Eat World when they're singing the
Ah-Ah-Ah part. Anyway, great song. Really simple but sooo
pretty. I think I got it right, but at least it sounds
close.

E-mail comments, suggestions, error-mistakes, etc. to
jrt5024@gmail.com. Thx! :D

-------------------------------------------------

Verse
G|66~-------------|
D|--7~------------|
A|---5~-----------|
D|----000000000000|
*NOTE  Hold the chord down with your fingers the entire time you're playing the drop D 8ths.

Chorus
G|-----------------|---------77777777|
D|---------77777777|222555999--------|
A|222555999--------|-----------------|
D|-----------------|-----------------|

Bridge
G|11--11--11-|11--9--9-|7--7--7-|11--9--9-|
D|--99--99--9|--77-77-7|--5--5-5|--77-77-7|
A|-----------|---------|-5--5---|---------|
D|-----------|---------|--------|---------|

Ending
G|66~-------|
D|--7~------|
A|---4-7-5~-|
D|----------|
  development and support by
dmitry ivanov