rock
 
|tablatures   |lyrics   |discussion forums   |more tabs @ XGuitar.com

Rancid tabs

You Dont Care Nothin' guitar tab

YOU DON'T CARE NOTHIN'


    F    G    C    A
e---X----X----X----X----
B---X----X----X----X----
G---X----X----5----X----
D---3----5----5----7----
A---3----5----3----7----
E---1----3----X----5----


Lead:

e|---8-8--8-8--8-8--8-8--8-8-8-8-----------------|
B|---8-8--8-8--8-8--8-8--8-8-8-8-[x3]------------|
G|------------------------------------10-(bend)--|
D|-----------------------------------------------|
A|-----------------------------------------------|
E|-----------------------------------------------|

INTRO:

C G A F (x2)
C G A F (w/lead) (x3)
C

(rake down 6th string)

VERSE:

A          F
A cat lies awake when it sleeps
C                        G
Was she conscious of her own miseries
A              F
Will the agony of her pain
C                            G
Win her to enlightenment and set her conscience free


PRECHORUS (palm-muted):

A                   F
Do you really wanna know what's happening
C                   G
Do you really wanna know what's going on
A                   F
Hey girl you better please take a look around
C                      G
Explore your heart and find out for yourself


CHORUS:

C       F     C         F                  C
Jenny Demilo, you don't care nothin' about me
C       F              C     G              FFFFFFFF (pm)
Jenny Demilo, well you don't care nothin' about me


VERSE:

A              F
I never really got a reason
C                       G                A
Never had a use for one before but now I know
             F
That there's now a prize
C                           G
Both for the wise and the unwise


[PRECHORUS] (Do you really wanna know what's happening...)

[CHORUS] (Jenny Demilo....)


BRIDGE:

C G A F (w/lead) (x3)
C

(rake down 6th string)

A         F         C         G
About me, about me, about me, yeah yeah about me
A         F         C         G                       C
About me, about me, about me, yeah yeah nothin' about me


[CHORUS] (Jenny Demilo...)


OUTRO:
           C     G              FFFFFFFF (pm)
I said you don't care nothin' about me
                   C     G              FFFFFFFF (pm)
Aaah... I said you don't care nothin' about me
           C     G          FFFFFFFF (pm)
I said you don't yeah yeah yeah

End on C

:---------------------------------------------------:
|Corrections/additional transcriptions are welcome. |
|Send them to: 'punk.tabs@telia.com'                |
:---------------------------------------------------:
|Transcribed by 'Sean'                              |
:---------------------------------------------------:
|The Complete Rancid Guitar Tab Compilation         |
|(http://hem1.passagen.se/ak5/rancid/)              |
:---------------------------------------------------:

Last revised: March 2, 1999.
  development and support by
dmitry ivanov