rock
 
|tablatures   |lyrics   |discussion forums   |more tabs @ XGuitar.com

Rancid tabs

(untitled) guitar tab

SITUATION / UNION BLOOD


    G    B    C    F    Bb   Eb   D    C#
e---X----X----X----X----X----X----X----X
B---X----X----X----X----X----X----X----X
G--------4----5---------3----8----7----6
D---5----4----5----3----3----8----7----6
A---5----2----3----3----1----6----5----4
E---3----X----X----1----X----X----X----X


G
Blood on the situation 
Bb           C          G
Blood on the street sometimes
Bb                   C
You're gonna hit the cold concrete

During solo, play: G Bb C  F Bb C

G
Bloody Thursday was July 5th
                      Bb
The pigs killed three workers 
              C
Harry Bridges grabbed the mic
G
The city shut down on July 6th 
                 Bb
The workers were outraged
         C
It was a general strike 

    G
The media claimed that the commies
                     Bb                 C
Were taking over and some believed that it was true
G 
Three uncompromising strikes paved the way
     Bb                  C
Minnesota, San Francisco, Toledo 
  
F
Blood on the situation 
Bb           C          G
Blood on the street sometimes
Bb                   C
You're gonna hit the cold concrete

VERSE 2 MISSING 

F
Blood on the situation 
Bb           C          G
Blood on the street sometimes
Bb                   C
You're gonna hit the cold concrete

BRIDGE: Eb D C# B (X2)

F
Blood on the situation 
Bb           C          G
Blood on the street sometimes
Bb                   C
You're gonna hit the cold concrete

:---------------------------------------------------:
|Corrections/additional transcriptions are welcome. |
|Send them to: 'punk.tabs@usa.net'                  |
:---------------------------------------------------:
|Transcribed by 'Jose Herrera'                      |
:---------------------------------------------------:
|The Complete Rancid Guitar Tab Compilation         |
|(http://hem1.passagen.se/ak5/rancid/)              |
:---------------------------------------------------: 
  development and support by
dmitry ivanov