rock
 
|tablatures   |lyrics   |discussion forums   |more tabs @ XGuitar.com

Rancid tabs

Turntable guitar tab

TURNTABLE


    F    G    C#   C    D    D#
e---X----X----X----X----X----X----
B---X----X----X----X----X----X----
G---X----X----6----5----7----8----
D---3----5----6----5----7----8----
A---3----5----4----3----5----6----
E---1----3----X----X----X----X----

^ : Bend
s : Slide to


Lead guitar played under the rhythm in the chorus:

e----------------------8-8-8-8-8-8---------
B-----8-8-8----6-6-6---8-8-8-8-8-8---------
G----s7-7-7---s5-5-5-----------------------
D------------------------------------------
A------------------------------------------
E------------------------------------------

Lead guitar during verse 4 and 6:

e----8-8-8-8-8-8-8---------------------------------8-8-8-8-8-8----
B----8-8-8-8-8-8-8---6-6-6-6-6-6---8-8-8---6-6-6---8-8-8-8-8-8----
G--------------------5-5-5-5-5-5---7-7-7---5-5-5------------------
D-----------------------------------------------------------------
A-----------------------------------------------------------------
E-----------------------------------------------------------------

INTRO:

    C
e------------------------------------------
B------------------------------------------
G---5-5-5-5-5-------^-^--------------------
D---5-5-5-5-5-------7-7--------------------   REPEAT (x4)
A---3-3-3-3-3------------------------------
E------------------------------------------

Yeah!!!

VERSE 1:

           C
He's gonna go go get it, gonna run run set it
      F
In an otherwise hidden realm
    G               F
Ah, everybody knows it's fucking wild 
            C
and there's no frontier or bounder

VERSE 2:

     C
Hey, it's not the style nor a trial
         F
It's the best of love and hate
    G                  F
Oh, come on everybody, let's get together
   C
I appall the backdrop of hate

CHORUS:

             G       F           C
Well there's no more food on the table
  G        F                 C
I once was strong, no longer able
       G    F               C
And an open mind, no longer stable
       G           F        C
And it spin like a DJ's turntable

BRIDGE:  C  D#  C#  D

VERSE 3:

  C
A million eyeballs and a blink and a smile
     F
With no dimensions in sight -ah
     G                F
Well given an inch, a billion colors
      C
The entire world's contrast light

VERSE 4 (w/lead):

   C
Oh it ain't right, another fight
     F
Well all of it's so very clear
        G                  F
With my passion on a stud, I walked through 
         C
I walked through the vicious ones, I really don't care

CHORUS:

             G       F           C
Well there's no more food on the table
  G        F                 C
I once was strong, no longer able
       G    F               C
And an open mind, no longer stable
       G           F        C
And it spin like a DJ's turntable

INTRO

VERSE 5 (rythm guitar only):

   C
My western mind has a hard time (hard time)
F
Getting across this trust
G                   F                C
Passive resistance, Your assistance (You're the one smoking dust)

VERSE 6 (w/lead):

C
It ain't a style, nor a trial
         F 
it's the best of love and hate (love and hate)
G                  F                      C
Come on everybody, let's get together, I appall the backdrop of hate

CHORUS:

             G       F           C
Well there's no more food on the table
  G        F                 C
I once was strong, no longer able
       G    F               C
And an open mind, no longer stable
       G           F        C
And it spin like a DJ's turntable

        G           F        C
Well ya spin like a DJ's turntable
        G           F        C
Well ya spin like a DJ's turntable
        G           F        C
Well ya spin like a DJ's turntable

SOLO:

e-----------------------------------------8-8-8-8-8-8-8-8------
B-----8-8-8-8-8-8-8-8---6-6-6-6-6-6-6-6------------------------
G--------------------------------------------------------------
D--------------------------------------------------------------
A--------------------------------------------------------------
E--------------------------------------------------------------

BRIDGE:  C  D#  C#  D
         
End on C

:---------------------------------------------------:
|Corrections/additional transcriptions are welcome. |
|Send them to: 'punk.tabs@usa.net'                  |
:---------------------------------------------------:
|Transcribed by 'Derek Carlson'                     |
|Most of the lyrics figured out by 'Funky Jane'     |
:---------------------------------------------------:
|The Complete Rancid Guitar Tab Compilation         |
|(http://hem1.passagen.se/ak5/rancid/)              |
:---------------------------------------------------:
  development and support by
dmitry ivanov