rock
 
|tablatures   |lyrics   |discussion forums   |more tabs @ XGuitar.com

Rancid tabs

Turntable bass tab

-------------------------------------------------------------------------------
			    Turntable - Rancid
-------------------------------------------------------------------------------

Tabbed By : Rodolfo Urbano Batista
e-mail: ninlivz@yahoo.com.br

Verse
G|-------------3-5--5p3-----------------------------------
D|-----222-4-5----------5-3---3----------0-3--3p2-1-------
A|--3-----------------------5------0-1-3------------3-1---
E|-------------------------------1----------------------5-

--------------------------------3-5-3-----------|
----------3--------------0--3-5--------5--4-3---|
-0--2-1-0----0--2-1-0-3-----------------------5-|
------------------------------------------------|

Chorus
G|----------------------------------|
D|------------------------0-1-0-----|
A|------------------3-3-3-------3-1-|
E|--3-3-3-3-1-1-1-1-----------------|

Bridge
G|--5-3-3-----------|
D|--------5-4-3-----|
A|--------------5-4-|
E|------------------|
  development and support by
dmitry ivanov