rock
 
|tablatures   |lyrics   |discussion forums   |more tabs @ XGuitar.com

Rancid tabs

Tropical London guitar tab

Intro:

-------------------------------------------
----------3--------------------------------
--------3-5-7---88888-7-5-3----------------
--------5-5-8------------------------------	 2
--------5-3-8------------------------------
-6-5-3--3---6------------------------------


Verse

If you lose me…
--------------------------------------------
--------------------------------------------
--------------------------88888888----------
--------88888888-55555555-88888888-88888888-	x3
--------88888888-55555555-66666666-88888888-
--------66666666-33333333----------66666666-


    when you’re sick girl, I held your hand etc.
-------------------------------------------
-------------------------------------------
--------------------------------8----------
--5-------------5---------------8----------
--5-------------5---------------6----------
--3-------------3--------------------------

losing you was not part of the plan

--------------------------------------------
--------------------------------------------
-3-3-3-3-3-3-3-3----------------------------
-3-3-3-3-3-3-3-3---3-3-3-3-3-3-3-3----------
-1-1-1-1-1-1-1-1---3-3-3-3-3-3-3-3----------
-------------------1-1-1-1-1-1-1-1----------


-------------------------------------------
----------3--------------------------------
--------3-5-7---88888-7-5-3----------------
--------5-5-8------------------------------	x 2
--------5-3-8------------------------------
-6-5-3--3---6------------------------------

solo:
---------------------------------------------------------------
---------------------------------------------------------------
---------------------------------------------------------------
-----------------8888-55------8888-55--------------------------
-------5-8888-88---------8888---------8888-55------------------
-6666-8---------------------------------------888886656--------








medication…etc

-------------------------------------------
-------------------------------------------
----5--8----------5--8---------------------
-5--5--8--8-8—-5--5--8--8-3----------------	x 2
-5--3--6--8-8—-5--3--6--8-3----------------
-3--------6-6--3--------6-1----------------

--------------------------------------------------------------
--------------------------------------------------------------
--------------------------------------------------------------
--------------------------------------------------------------
-55555-333-3-111---1-3-5-3-1----------------------------------
-----------------3--------------------------------------------

-1-3-1-3-1----------------------------
-3-3-3-3-3-1-3------------------------
----------------0-3-33-0-3------------		x2
--------------------------------------
--------------------------------------
--------------------------------------


--------------------------------------
--------------------------------------
-888888-------------------------------
-888888-88888-------------------------	 x 8
-666666-88888-------------------------
--------66666-------------------------
  development and support by
dmitry ivanov