rock
 
|tablatures   |lyrics   |discussion forums   |more tabs @ XGuitar.com

Rancid tabs

Travis Bickle bass tab

intro
--------5-
-------5--
-5-4-2----
---------- 2X

------------------
------------------
-2-22-----------0-
-----2-22-3-33-3-- 3X

verse
------------------
------------------
-2-22-----------0-
-----2-22-3-33-3-- 8X

chorus
-----------------------------------------------
-----------------------------------------------
-22222222------------5-2-0-----5-5-5-5-0-0-0-0-
---------222222-02333------3-2----------------- 2X

intro
------------------
------------------
-2-22-----------0-
-----2-22-3-33-3-- 3X

verse
------------------
------------------
-2-22-----------0-
-----2-22-3-33-3-- 8X

chorus
-----------------------------------------------
-----------------------------------------------
-22222222------------5-2-0-----5-5-5-5-0-0-0-0-
---------222222-02333------3-2----------------- 2X

bridge
-------------------------
--0-2-3-4-3-2-0----------
-2-----------------------
----------------22222222- 4X

-----------------------------------------------
-----------------------------------------------
-22222222------------5-2-0-----5-5-5-5-0-0-0-0-
---------222222-02333------3-2----------------- 2X

chorus
-----------------------------------------------
-----------------------------------------------
-22222222------------5-2-0-----5-5-5-5-0-0-0-0-
---------222222-02333------3-2----------------- 2X

outro
------------------
------------------
-2-22-----------0-
-----2-22-3-33-3-- 3X
  development and support by
dmitry ivanov