rock
 
|tablatures   |lyrics   |discussion forums   |more tabs @ XGuitar.com

Rancid tabs

The Wolf guitar tab

THE WOLF


      C    F     A#   A    G
e|----X----X-----X----X----X------
B|----X----X-----X----X----X------
G|----X---10-----X----X----X------
D|---10---10-----8----5----5------
A|---10----8-----8----5----5------
E|----8----X-----6----7----3------


INTRO: (This may look a little odd. The notes inbetween the chords
        are pinky finger bounces.  You continue to play the power 
        chords but bounce your pinky off of the notes indictated.)

    C               
e---------------------------------------------------------------
B---------------------------------------------------------------
G---------------------------------------------------------------
D---10------10---10------10---10------10---10------10-----------
A---10--12--10---10--12--10---10--12--10---10--12--10-----------
E---8---8---8----8---8---8----8---8---8----8---8---8------------
            And I didn't trust him          'cause he
            And I didn't go there                   I
    
    F
e---------------------------------------------------------------
B---------------------------------------------------------------
G---10------10---10------10---10------10---10------10-----------
D---10--12--10---10--12--10---10--12--10---10--12--10-----------
A---8---8---8----8---8---8----8---8---8----8---8---8------------
E---------------------------------------------------------------
    smiled at me at first
    swear that it was cursed

    A#                          F
e---------------------------------------------------------------
B---------------------------------------------------------------
G-------------------------------10-------10---10-------10-------
D---8--------8---8--------8-----10--12---10---10--12---10-------
A---8---10---8---8---10---8-----8---8----8----8---8----8--------
E---6---6----6---6---6----6-------------------------------------
    Just like               the wolf before he
    Just as if it               was to

    C
e---------------------------------------------------------------
B---------------------------------------------------------------
G---------------------------------------------------------------
D---10------10---10------10---10------10---10------10-----------
A---10--12--10---10--12--10---10--12--10---10--12--10-----------
E---8---8---8----8---8---8----8---8---8----8---8---8------------
    bites me
  despise me


F                            A#
I saw some better days, from Kingston to hunter place
  C
A portrait of a sum of the last couple years
    F                   A#
See I lost an image, an image of chaos
     C
Yeah all I'd rather notice, isolation in place
           F                            A#
Of all the kids been losing everything, every single day 
   C
In all this daily drama you know I see myself fall

A#
??? [Lyrics missing]
A
A lost canyon
   G
Consuming it all

C                                F
And I didn't trust him, cause he smiled at me at first
A#            F              C
Just like the wolf before he bites me
C                        F
And I didn't go there, I swear that it was cursed
A#            F         C
Just as if it was to despite me

          F                          A#
So on the antisocial side you know I find myself a job
 C
??? incredible artist
 F    A#
??? a delicate balance
  C
I never really thought I could make it all happen
         F                     A#
Well the anarchist kid gives a fuck about you
  C
I stood up every single time that I fell

A#
It's just you
A
It's just you
   G
Consuming it all

C                                F
And I didn't trust him, cause he smiled at me at first
A#            F              C
Just like the wolf before he bites me
C                       F
And I didn't go there I swear that it was cursed
A#            F         C
Just as if it was to despite me

    C
e---------------------------------------------------------------
B---------------------------------------------------------------
G---------------------------------------------------------------
D---10------10---10------10---10------10---10------10-----------
A---10--12--10---10--12--10---10--12--10---10--12--10-----------
E---8---8---8----8---8---8----8---8---8----8---8---8------------

[SOLO - Missing]

C                                F
And I didn't trust him, cause he smiled at me at first
A#            F              C
Just like the wolf before he bites me
C                        F
And I didn't go there, I swear that it was cursed
A#            F         C
Just as if it was to despite me

    C
e---------------------------------------------------------------
B---------------------------------------------------------------
G---------------------------------------------------------------
D---10------10---10------10---10------10---10------10------10---
A---10--12--10---10--12--10---10--12--10---10--12--10------10---
E---8---8---8----8---8---8----8---8---8----8---8---8-------8----
                                                          Yeah!

:---------------------------------------------------:
|Corrections/additional transcriptions are welcome. |
|Send them to: 'punk.tabs@usa.net'                  |
:---------------------------------------------------:
|Transcribed by 'Derek Carlson'                     |
|Most of the lyrics figured out by 'Funky Jane'     |
:---------------------------------------------------:
|The Complete Rancid Guitar Tab Compilation         |
|(http://hem1.passagen.se/ak5/rancid/)              |
:---------------------------------------------------:
  development and support by
dmitry ivanov