rock
 
|tablatures   |lyrics   |discussion forums   |more tabs @ XGuitar.com

Rancid tabs

Tenderloin guitar tab

TENDERLOIN


     G    C    D
e|---X----X----X----|
B|---X----X----X----|
G|---X----5----7----|
D|---5----5----7----|
A|---5----3----5----|
E|---3----X----X----|

INTRO RIFF:
note: b=bend
      h=hammer on
e|-----6b---------------------6-6-6-3-|
B|-------------4h5-5-5----------------|
G|-7b------7b----------7b-7-7---------|
D|------------------------------------|
A|------------------------------------|
E|------------------------------------|
   
   G   D   G   C       G      D     G
e|-----6b---------------------6-6-6-3-|
B|-------------4h5-5-5----------------|
G|-7b------7b----------7b-7-7---------|
D|------------------------------------|
A|------------------------------------|
E|------------------------------------|

C              G
Realize you're dehumanized you
C         G      D
Criticize your existence
C                     G
It's your demise when no sun arise you know
C                 D
Paralyzed by your lack of resistence

    G                D
She knows she is she knows she's going
G                       C
Down the road where the fire's glowing
      G          D          G
Tenderloin tenderloin tenderloin 

    G                D
She knows she is she knows she's going
G                       C
Down the road where the fire's glowing
      G          D          G
Tenderloin tenderloin tenderloin 

C                        G
The tricks she gets them she's not a victim 
C                            G             D
She makes a list of them and reads it all alone
C                       G
For money she's walking down on Larkin
C                       D
In T.A. they're rocking all night long

    G                D
She knows she is she knows she's going
G                       C
Down the road where the fire's glowing
      G          D          G
Tenderloin tenderloin tenderloin 

    G                D
She knows she is she knows she's going
G                       C
Down the road where the fire's glowing
      G          D          G
Tenderloin tenderloin tenderloin

(/=#of times chord it hit)
G/// D/// G/// C/// G/// D/// G///////

(INTRO RIFF)
OUTRO RIFF:                    G (end)
e|-----------------------6-6-6-3-|
B|-----------------------6-6-6-3-|
G|-(gradual bend)7-7-7-----------|
D|-------------------------------|
A|-------------------------------|
E|-------------------------------|

  development and support by
dmitry ivanov