rock
 
|tablatures   |lyrics   |discussion forums   |more tabs @ XGuitar.com

Rancid tabs

St. Mary guitar tab

ST. MARY


    G    C    D
e---X----X----X----
B---X----X----X----
G---X----5----7----
D---5----5----7----
A---5----3----5----
E---3----X----X----

INTRO REEF:

e-3--3-3-3-3-3-3-3-3-3-3-3-3-3-3    -----------------------
B-3--3-3-3-3-3-3-3-3-3-3-3-3-3-3    3--3-3-3-3-3-3-3-3-3-3-
G-0--0-0-0-0-0-0-0-0-0-0-0-0-0-0    2--2-2-2-2-2-2-2-2-2-2-
D------------------------------- 3X 0--0-0-0-0-0-0-0-0-0-0-
A-------------------------------    ----------------------- 
E-------------------------------    -----------------------
(Repeat the side at the left of the 3X three times, then play
what's on the left of the 3X once)

While the lead guitar does the INTRO REEF, the rythmic guitar,
supports it by playing the following notes:

G(LET RING)--G(LET RING)--G(LET RING)--D(PLAY FAST)

(Hey Punx, You've gotta' join both reefs in this song, 
first play the intro reef, then 'exactly' after you finish 
it  you go into the REEF written below):


REEF:

TIP: To make a hammer really easy, you just, put your 
index finger covering two chords, e.g. to make hammer  e-2h3-
                                                       B-2h3-
 
You put your index finger covering e-2-, you sound
                                   B-2-
both chords (e & B) ONCE, and then you hammer your
middle finger on to e-3-
                    B-3-

                                   
h=Hammer, EG. 2h3= 2 hammer on to 3

e-2h3--3-3-3-3-3-3-3--3-3--3-3----------    
B-2S3--3-3-3-3-3-3-3--3-3--3-3----------    
G---------------------------------------    
D--------------------------------------- 2X 
A---------------------------------------    
E---------------------------------------    


e-2h3--3-3-2h3--3-3-2h3--3-3-2h3--3-3-----------------------
B-2h3--3-3-2h3--3-3-2h3--3-3-2h3--3-3-3--3-3-3-3-3-3-3-3-3-3
G-------------------------------------2--2-2-2-2-2-2-2-2-2-2
D-----------------------------------------------------------
A-----------------------------------------------------------
E-----------------------------------------------------------

(Repeat all of the reef two times, punx!)

While the lead guitar is playing the reef, the rythmic guitar
suppots it by playing the following chords:

G--C-G--C-G--C-G-D----  2X


VERSE:

G           D                C              G
She's got a ticket and she's waiting at the station
G            D             C                 G
She's got to get away get away as far as she can
G                  D       C                    G
Her problems will arise as sure as the sun does shine yeah
G            D           C               G
She's got to get used to life out on the lam

CHORUS:

C                                               G     C-G--C-G--
Now Mary's out the door with a loaded .44 in her hand
D                          C                              G--C-G--D----
Shooting down the law that shot down her dear departed man

VERSE:

G           D               C       G
When I last saw her she was looking troubled
G                    D       C          G
She said this is the 905 I'm gonna be alright
G                D     C      G
She took the Greyhound into Salinus
G       D               C             G
I got a letter then she dropped outta sight

CHORUS:

C                                               G     C-G--C-G--
Now Mary's out the door with a loaded .44 in her hand
D                          C                              G--C-G--D----
Shooting down the law that shot down her dear departed man

COOL VERSE:

G        D    C     G
Shrouded   in anger oh 
G              D      C            G
Encompassed oh yeah encompassed by pain
G   D       C           G
He was your best friend 
G                       D        C    G
And you will never ever ever see him again

CHORUS:

C                                               G     C-G--C-G--
Now Mary's out the door with a loaded .44 in her hand
D                          C                              G--C-G--D----
Shooting down the law that shot down her dear departed man

FINAL REEF:

e-2h3--3-3-3-3-3-3-3--3-3--3-3----------    
B-2h3--3-3-3-3-3-3-3--3-3--3-3----------    
G---------------------------------------    
D--------------------------------------- 2X 
A---------------------------------------    
E---------------------------------------    


e-2h3--3-3-2h3--3-3-2h3--3-3-2h3--3-3-----------------------
B-2h3--3-3-2h3--3-3-2h3--3-3-2h3--3-3-3--3-3-3-3-3-3-3-3-3-3
G-------------------------------------2--2-2-2-2-2-2-2-2-2-2
D-----------------------------------------------------------
A-----------------------------------------------------------
E-----------------------------------------------------------

While the lead guitar is playing the reef, the rythmic guitar
suppots it by playing the following chords:

G--C-G-G--C-G-G--C-G-D----

G--C-G-G--C-G-G--C-G-D----GXXXX

Repeat all the reef twice but at the end play G as the final chord.

STRUCTURE:

INTRO REEF
REEF
VERSE
CHORUS
VERSE
CHORUS
REEF
COOL VERSE
CHORUS
FINAL REEF.

THE END.
  development and support by
dmitry ivanov