rock
 
|tablatures   |lyrics   |discussion forums   |more tabs @ XGuitar.com

Rancid tabs

Start Now bass tab

Verse:
G|--------------------------------------------------------------------|
D|--------------------------------------------------------------------|
A|-444444-3-6------3-6-444444-3-6------3-6-444444-3-6--------44444444-|
E|-----------444444--------------444444--------------66666666---------|

Pre-chorus:
G|------------------------|
D|------------------------|
A|----4-----------------6-|
E|---------1/2/3/4/5/6----|

Chorus:
G|-------------------------------------------------|	on
D|----------------6-5------------------------------|	and
A|----------4-6-66---6-4-------3-44444-6-4---------|	on
E|-44444-0-4------------6666646------------6-44444-|

Bridge:
G|--8-6-8-8---6-8---------6-8-|
D|---8-----5-6---5-5-6-6-8----|
A|-6-----6-----6--------------|
E|----------------------------|
  development and support by
dmitry ivanov