rock
 
|tablatures   |lyrics   |discussion forums   |more tabs @ XGuitar.com

Rancid tabs

Spirit of '87 bass tab

Artist: Rancid
Song: Spirit Of '87
Album: Indestructible
Track: 11
Bassist: Matt Freeman

Intro/chorus:
G|----------------------------------------------------------|
D|----00000-0-----0------00000-0-----0------00000-0-----0---|
A|---------2-2-1-0-0----------2-2-1-0-0----------2-2-1-0-0--|
E|-222--------------0-222--------------0-222--------------0-|

Verse:
G|----------------------|
D|-------2-4--------2---|
A|-4-4444---2-2222-4-4--|
E|----------------------|

G|-------------------------------------------------------------------|
D|-----------------000000000000000----------------0------------------|
A|--------------------------------02222222222222---2-1-00000004------|
E|-2222222222222222--------------------------------------------0-222-|
  development and support by
dmitry ivanov