rock
 
|tablatures   |lyrics   |discussion forums   |more tabs @ XGuitar.com

Rancid tabs

Solidarity guitar tab

SOLIDARITY



    C    A    F    G    Bb
e---X----X----X----X----X----
B---X----X----X----X----X----
G---5-------------------3----
D---5----7----3----5----3----
A---3----7----3----5----1----
E---X----5----1----3----X----

C A F G C (repeat)

C          A
Solidarity love and unity
F                  C 
Set me free with a bullet and a gun

C                       Bb            F
You said it was nothing I knew it was something
C                       Bb        F
It was no surprise when I saw you crying

C                  
About you said now what went wrong
      Bb           F
About you said you can't go on
C
About you said it's a long time gone
      Bb            F
About you said your life's too long

C          A
Solidarity love and unity
F                  C 
Set me free with a bullet and a gun

C                    Bb              F
Didn't see it coming your fears went hunting
C               Bb        F
Nine millimeter stops you running

C
About you said the pressure's on
      Bb           F
About you said you can't go on
C
About you now you're long time gone
      Bb     F
About you so what went wrong

C          A
Solidarity love and unity
F                  C 
Set me free with a bullet and a gun

e-------------------------------------------
B-------------------------------------------
G-5-7--5-7--5-7-5-7-5-7-5-7-5-7-5-7-5-7-5-7-
D-------------------------------------------
A-------------------------------------------
E-------------------------------------------

C          A
Solidarity love and unity
F                  C 
Set me free with a bullet and a gun
  development and support by
dmitry ivanov