rock
 
|tablatures   |lyrics   |discussion forums   |more tabs @ XGuitar.com

Rancid tabs

Side Kick guitar tab

SIDE KICK -Plain chords


    A    C    G    F    E
e---X----X----X----X----X----
B---X----X----X----X----X----
G--------5--------------4----
D---7----5----5----3----2----
A---7----3----5----3----2----
E---5----X----3----1----X----


A, C, G, A
A, C, G, A
A, C, G, A, C, G, A, C, G, F

A       C             G           F
I had a dream I was a vigilante's side kick
A       C            G            F         E
My name is Tim I'm a lesser known character
A       C             G           F
I had a dream I was a vigilante's side kick
A        C            G         F   
Fighting crime in the streets together

C              E
Down in Oakland off of West Grand
F                  G
Saint Joseph Relief Program
C                       E
A good place where good people get food yeah
F                      G
Help your fellow man a good thing to do yeah

C                     E
Government agency said be afraid of me I
F                        G
Shut your doors down and it won't phase me
C                              E
Wolverine came through left the agent for dead
F                          G
Backed up the doors back up everyone was fed

A       C             G           F
I had a dream I was a vigilante's side kick
A       C            G            F         E
My name is Tim I'm a lesser known character
A       C             G           F
I had a dream I was a vigilante's side kick
A        C            G         F   
Fighting crime in the streets together

C               E
Do not bill the abandoned buildings
F                           G
It's nice to sleep when you got a cieling
C                          E
Neighborhood watch said we gotta put a stop yeah
F                                 G
Can't have people living for free call the cops yeah

C                        E
Here comes the SWAT Team with the M16 to
F                  G
Shoot the walls in destroy the building
C                        E
Wolverine was sad and it made him mad
F                      G
Every single cop got a bullet in their head

A       C             G           F
I had a dream I was a vigilante's side kick
A       C            G            F         E
My name is Tim I'm a lesser known character
A       C             G           F
I had a dream I was a vigilante's side kick
A        C            G         F   
Fighting crime in the streets together

A, C, G, A
A, C, G, A
A, C, G, A, C, G, A, C, G, F


______________________________________________________________________________

SIDE KICK -Tablature

Intro:

     A  C  G  A    A  C  G  A    A C G A C G A C G F                           
E-|---------------------------------------------------------------------------|
B-|---------------------------------------------------------------------------|
G-|--2--5----------2--5----------2-5---2-5---2-5------------------------------|
D-|--2--5--5--7----2--5--5--7----2-5-5-2-5-5-2-5-5-3--------------------------|
A-|--0--3--5--7----0--3--5--7----0-3-5-0-3-5-0-3-5-3--------------------------|
E-|--------3--5----------3--5--------3-----3-----3-1--------------------------|
                                                                               
Chorus:

    A       C            G            F        A           C          G        
E-|---------------------------------------------------------------------------|
B-|---------------------------------------------------------------------------|
G-|-2-2-2-2-5-----5-5---5----------------------2-2-2----2--5--5-5---5---------|
D-|-2-2-2-2-5-----5-5---5-5-5-5--5----3---3----2-2-2----2--5--5-5---5-5--5----|
A-|-0-0-0-0-3-----3-3---3-5-5-5--5----3---3----0-0-0----0--3--3-3---3-5--5----|
E-|-----------------------3-3-3--3----1---1---------------------------3--3----|
    I had a dream I was a vigilante's sidekick. My name is Tim, I'm a lesser   
          
          F         E A       C             G           F       A              
E-|---------------------------------------------------------------------------|
B-|---------------------------------------------------------------------------|
G-|-------------------2-2-2-2-5-----5-5---5---------------------2-2---2-------|
D-|-5-----3---3---3-2-2-2-2-2-5-----5-5---5-5-5-5--5----3---3---2-2---2-------|
A-|-5-----3---3---3-2-0-0-0-0-3-----3-3---3-5-5-5--5----3---3---0-0---0-------|
E-|-3-----1---1---1-0-----------------------3-3-3--3----1---1-----------------|
    known character.  I had a dream I was a vigilante's sidekick. Fighting     
    
    C            G         F                                                   
E-|---------------------------------------------------------------------------|
B-|---------------------------------------------------------------------------|
G-|-5-5---5--5----------------------------------------------------------------|
D-|-5-5---5--5---5--5----5-3-3------------------------------------------------|
A-|-3-3---3--3---5--5----5-3-3------------------------------------------------|
E-|--------------3--3----3-1-1------------------------------------------------|
    crime in the streets together.                                             

Verse 1:    
    
    C                E                  F                    G                 
E-|---------------------------------------------------------------------------|
B-|---------------------------------------------------------------------------|
G-|-5----5--5--5--------------------------------------------------------------|
D-|-5----5--5--5-----2--2---2----2------3---3-3----3-3-----3/5----5--5--------|
A-|-3----3--3--3-----2--2---2----2------3---3-3----3-3-----3/5----5--5--------|
E-|------------------0--0---0----0------1---1-1----1-1-----1/3----3--3--------|
    Down in Oakland, off of West Grand. St. Joseph relief, a good program.     
    
    C                       E                F                     G           
E-|---------------------------------------------------------------------------|
B-|---------------------------------------------------------------------------|
G-|-5-5-5-5-5-5-5-5-5-5-5-5---------------------------------------------------|
D-|-5-5-5-5-5-5-5-5-5-5-5-5-2-2-2-2-2-2-2-2--3-3-3-3-3-3-3-3-3-3--3/5-5-5-5-5-|
A-|-3-3-3-3-3-3-3-3-3-3-3-3-2-2-2-2-2-2-2-2--3-3-3-3-3-3-3-3-3-3--3/5-5-5-5-5-|
E-|-------------------------0-0-0-0-0-0-0-0--1-1-1-1-1-1-1-1-1-1--1/3-3-3-3-3-|
    A good place where good people get food, help your fellow man a good thing 
          
          C                       E                   F                     G  
E-|---------------------------------------------------------------------------|
B-|---------------------------------------------------------------------------|
G-|-------5------5----5------5------------------------------------------------|
D-|-5-5-5-5------5----5------5----2-----2-----2-------3----3----3-----3-----5-|
A-|-5-5-5-3------3----3------3----2-----2-----2-------3----3----3-----3-----5-|
E-|-3-3-3-------------------------0-----0-----0-------1----1----1-----1-----3-|
    to do. Government agency said, be afraid of me. I shut your doors down, it 
                    
                    C                                E               F         
E-|---------------------------------------------------------------------------|
B-|---------------------------------------------------------------------------|
G-|-----------------5----5-----5----5-------5----5----------------------------|
D-|-5-----5-----5---5----5-----5----5-------5----5---2-2---2---2-----3------3-|
A-|-5-----5-----5---3----3-----3----3-------3----3---2-2---2---2-----3------3-|
E-|-3-----3-----3------------------------------------0-0---0---0-----1------1-|
    won't phase me. Wolverine came through, left the agent for dead. Opened up 
                       
                       G                                                       
E-|---------------------------------------------------------------------------|
B-|---------------------------------------------------------------------------|
G-|---------------------------------------------------------------------------|
D-|-3---3-----3----3---5--5-5---5---5-----------------------------------------|
A-|-3---3-----3----3---5--5-5---5---5-----------------------------------------|
E-|-1---1-----1----1---3--3-3---3---3-----------------------------------------|
    the doors back up. Everyone was fed.                                       

Song:

Intro
Chorus
Verse 1
Chorus
Verse 2
Chorus
Intro

Verse 2 Lyrics:

Do not bill the abandoned buildings,
it's nice to sleep when you've got a ceiling.
Neighborhood watch said we gotta put a stop,
can't have people livin' for free call the cops.
Here comes the SWAT team, and the M-16,
shoot the walls in, destroy the building.
Wolverine was sad and it made him mad,
every single cop got a bullet in the head.


  development and support by
dmitry ivanov