rock
 
|tablatures   |lyrics   |discussion forums   |more tabs @ XGuitar.com

Rancid tabs

She's Automatic bass tab

Rancid
SHE'S AUTOMATIC



Verse:                          1st Ending       2nd Ending
G:-----------------------------*----------------*--------------
D:-----------------------------*----------------*--------------
A:3---------3------------------*-3--3-3-3-1-1-2-*3--3-3-3-1-0--
E:---3--3-3----3--3-3-1--3--3-3*----------------*-------------3
Chorus:(Repeat once, but 2nd time hold first 3)
G:----------------------------------------------------------------
D:----------------------------------------------------------------
A:----------------------------------------------------------------
E:1-1-1-1-1-1-1-1-1-1-1-1-1-1-1-2-3-3-3-3-3-3-3-3-3-3-3-3-5-3-5-3-
Instrument Part and "The way she moves yeah!": (Repeat once)
G:-------------------------------------------------
D:-------------------------------------------------
A:3--3-3-1-0---------------1-3--3-3-1-0------0--1--
E:-----------3-1--1-1--1-3--------------3-1--------
Cool little bass during quiet part: (begin by sliding up)
G:-------------------5
D:---5-----5--3--5----
A:3-----3----------3--
E:--------------------
Ending:
A:3---------3
E:----1-1-1--
Figured out and written by Fidget (bassist of Half Moon)
  development and support by
dmitry ivanov