rock
 
|tablatures   |lyrics   |discussion forums   |more tabs @ XGuitar.com

Rancid tabs

Salvation guitar tab

SALVATION -Plain chords (Version A)


     A    D    E
e|---X----X----X----|
B|---X----X----X----|
G|---X----7----9----|
D|---7----7----9----|
A|---7----5----7----|
E|---5----X----X----|


A...(slowly rake down 6th string)
Come on baby won't you show me what you got there
D              E       
I want your salvation whoah
A...(slowly rake down 6th string)
Come on baby won't you show me what you got there
D              E       
I want your salvation whoah

A                             D               E               D
There's a neighborhood called Blackhawk where all the rich people hide
A                                     D
I was down on my luck working for the Salvation Army 
    E                    D
The shelter is where I reside
A                      D             E                D
Everyday we drive into Blackhawk and pick up the offerings
A                 D            E          D
Microwave ovens refridgerators for the suffering

A...(slowly rake down 6th string)
Come on baby won't you show me what you got there
D              E       
I want your salvation whoah
A...(slowly rake down 6th string)
Come on baby won't you show me what you got there
D              E       
I want your salvation whoah

A         D                  E         D
I can't believe these people live like kings
A        D         E       D
Hidden estates and diamond rings
      A    D  E        D        
I'm a ra-a-at out on a mission
A           D          E       D 
I'm in your front yard under suspicion

A...(slowly rake down 6th string)
Come on baby won't you show me what you got there
D              E       
I want your salvation whoah
A...(slowly rake down 6th string)
Come on baby won't you show me what you got there
D              E       
I want your salvation whoah

SOLO:
Note: h=hammer on
      f=half bend
      notes in () are fingered but not hit
e|--------------------------------------------------------------------------|
B|--------------------------------------------------------------------------|
G|-6h7-----5-6h7-----5-7-10-10--10h9-7---7-7-9f-(9)-7---7---7---7-9f-(9)-7--|
D|-------7---------7-------------------9--------------9---9---9-------------|
A|--------------------------------------------------------------------------|
E|--------------------------------------------------------------------------|

A...(slowly rake down 6th string)
Come on baby won't you show me what you got there
D              E       
I want your salvation whoah
A...(slowly rake down 6th string)
Come on baby won't you show me what you got there
D              E       
I want your salvation whoah

A         D                  E         D
I can't believe these people live like kings
A        D         E       D
Hidden estates and diamond rings
      A    D  E        D        
I'm a ra-a-at out on a mission
A           D          E       D 
I'm in your front yard under suspicion

A...(slowly rake down 6th string)
Come on baby won't you show me what you got there
D              E       
I want your salvation whoah
A...(slowly rake down 6th string)
Come on baby won't you show me what you got there
D              E       
I want your salvation whoah

SOLO

A...(slowly rake down 6th string)
Come on baby won't you show me what you got there
D              E       
I want your salvation whoah
A...(slowly rake down 6th string)
Come on baby won't you show me what you got there
D              E       
I want your salvation whoah

__________________________________________________________________________

SALVATION -Tablature


CHORUS:

come on baby won't you show me what got here
e:--------------------------------------------------------
b:--------------------------------------------------------
g:--------------------------------------------------------
d:--------------------------------------------------------      x 16
a:---7---------------------------------------------------
e:---5---------------------------------------------------

i want your salvation
e:-------------------------------------------------------
b:-------------------------------------------------------
g:-------------------------------------------------------
d:---7--------------------------------------------------       x 8
a:---5--------------------------------------------------
e:-------------------------------------------------------

whoa-oh
e:-------------------------------------------------------
b:-------------------------------------------------------
g:-------------------------------------------------------                   
d:----9-------------------------------------------------
a:----7-------------------------------------------------
e:-------------------------------------------------------

VERSE:

e:---------------------------------------------------------------------------------
b:---------------------------------------------------------------------------------
g:---------------------------------------------------------------------------------
d:---------------------------7-----6----7----9-------------9---7---6---7-----------
a:-----7------7------------5-----4----5----7-------------7---5---4---5-------------
e:-----5------5--------------------------------------------------------------------

__________________________________________________________________________

SALVATION -Plain chords (Version B (Different chorus, verse as A))

CHORDS

    A     D     E     C    C#
|-----------------------------|
|-----------------------------|
|---------7-----9-----5----6--|
|---7-----7-----9-----5----6--|
|---7-----5-----7-----3----4--|
|---5-------------------------|


CHORUS:

A                      (pick scrape low E)
come on baby won't you show me what you got yeah
C C#        D          E
i want your salvation, whoa-oh
  development and support by
dmitry ivanov