rock
 
|tablatures   |lyrics   |discussion forums   |more tabs @ XGuitar.com

Rancid tabs

Salvation bass tab

Rancid
Bass Tabliture for Salvation:
Chorus:
G:-------------------------------------------------
D:-------------------------------------------------
A:-0-0-0-0-0-0-0-0-0-0-3-4-5-5-5-4-5-6-7-7-7-5-----
E:---------------------------------------------8---
Verse
G:-------------------------
D:-------------------------
A:-0-0-5-4-5-6-7-7-4-5-4---
E:-----------------------7-
Guitar Solo:(Repeat 3 times)
G:6-7-6---------------------------
D:------7-6-7-6-------------------
A:---------------9-7-7-7-7-7-7-7-9
E:--------------------------------

Figured out and written by Fidget, with revisions by Matt.
Edited by Ben Rastegari
  development and support by
dmitry ivanov