rock
 
|tablatures   |lyrics   |discussion forums   |more tabs @ XGuitar.com

Rancid tabs

Rwanda bass tab

Rancid
"Rwanda"
Rancid (2000)
by: Alec(misfit809@Hotmail.com)

Intro & Chorus

G:4-5-7------4-5-7----11-12-14-11--------11-12-14-11-------|
D:------7-5-------7-5-------------12-7-5-------------12-7-5|
A:------5-3-------5-3----------------5-3----------------5-3|
E:---------------------------------------------------------|

G:------------------------------|
D:------------------------------|
A:-5-5-3-3-----------3-3-5-5-5-5|
E:--------3-3-3-3-3-3-----------|
  development and support by
dmitry ivanov