rock
 
|tablatures   |lyrics   |discussion forums   |more tabs @ XGuitar.com

Rancid tabs

Roadblock bass tab

Artist: Rancid
Song: Roadblock
Tabber: matt_tmse
Email: matt5_fart@hotmail.com

Intro
G--------------------------------------------------------------------
D----6---8-6---6---------6---8-6---6---------6---8-6---6-------------
A--8---8-----8---8-6---8---8-----8---8-6---8---8-----8---8-6---8-----
E----------------------------------------------------------------4-6-

Verse
G------------------------------------------
D------------------------------------------
A-8-8-8-8-8-8---------8-8-8-8-8-8---------- X2
E-------------4-4-6-6-------------4-4-6-6--

G----------------------------------
D----3-----------------------------
A--4---6-4---5-6-7-8-6-8-6-8-6----- X2
E----------6-------------------8-6-

G---------------------------------------
D---------------------------------------
A--4-4-4-4-----------3-4-4-4------------
E----------4-6-6-6-6---------4-6-6-6-6--

Pre Chorus
G-----------------------------------------------------------------
D-----------------------------------------------------------------
A-4-4-4-4-4-4-4-4-4-4-4-4-4-4-4-4-3-3-3-3-3-3-3-3-3-3-3-3-3-3-3-3-
E-----------------------------------------------------------------
  development and support by
dmitry ivanov