rock
 
|tablatures   |lyrics   |discussion forums   |more tabs @ XGuitar.com

Rancid tabs

Rigged on a Fix bass tab

Band: Rancid
Song: Rigged On  A Fix
Album: 2000
Tabbed By: Erik Stromberg

Verse
G -----------------------------------------
D -----------------------------------------
A -2333-2333-2333-2333-0111-0111-2333-2333- X2
E -----------------------------------------

Stick
G ----------------------------------------------------
D ----------------------------------------------------
A ---2-3-5-3-2-----2-3-5-3-2---- PAUSE ---2-3-5-3-2---
E -3-----------3-3-----------3-3--------3-----------3-

A this one more time
and then

Chorus
G --------------------------------------
D --------------------------------------
A ---3>-3-2-3-2-3-2-6-6-3-2-3-2-3-2-6-6- X2
E -3>-----------------------------------

Play something really fast, really fast
and then

Chorus X2

Something really fast
and then

Outro
G ---------------------------------
D ---------------------------------
A -3-2-3-2-3-2-6-6-3-2-3-2-3-2-6-6- X2
E ---------------------------------

End on A -3-

And thats it.
  development and support by
dmitry ivanov