rock
 
|tablatures   |lyrics   |discussion forums   |more tabs @ XGuitar.com

Rancid tabs

Rejected guitar tab

REJECTED -Plain chords


     E   G   A   B   C
e|---X---X---X---X---X---|
B|---X---X---X---X---X---|
G|---X---X---X---X---5---|
D|---2---5---7---9---5---|
A|---2---5---7---9---3---|
E|---0---3---5---7---X---|

*NOTE: /=# of times note(s) or chord is hit
       F=full bend

INTRO:

E (bass riff) B// A// E (bass riff) B// A//

e|---------|      E...
B|----8///-| x10
G|--10F///-| 
D|---------|
A|---------|
E|---------|

VERSE:

E                  C
I could not fit in I was the one who got caught
G                              A
I was the one who got realized I was the one who got dropped

E        C
Shut out banished and locked away
G                        A
The knife that did me in I carry to this day

CHORUS:

E  C   G  A 
Re-e-e-e-ejected x2

Crossing bridges in the land of the forgotten

E  C   G  A       B...
Re-e-e-e-ejected -jected-jected-jected-jected

VERSE:

E                  C
I could not fit in I was the one who got caught
G                              A
I was the one who got realized I was the one who got dropped

E        C
Distrust existed that I never saw
G                    A
Deep seated distrust I was a victim of

CHORUS:

E  C   G  A 
Re-e-e-e-ejected x2

Crossing bridges in the land of the forgotten

E  C   G  A       B...
Re-e-e-e-ejected -jected-jected-jected-jected

BRIDGE:

E....... B... A... E....... B... A... x2

E                                  B      A
Unspoken among the more privelaged or the so called
E                         B              A
I was not good enough not good enough at all
E                          B           A
At first outta lonliness I tried to conform
E                          B            A    B...
But all that bullshit just left me all alone   Left me all alone yeah!

OUTRO:

E  C   G  A
Re-e-e-e-ejected
E  C   G  A
Re-e-e-e-ejected
E  C   G  A
Re-e-e-e-ejected
E  C   G  A       B...                        E (end)
Re-e-e-e-ejected -jected-jected-jected-jected

STRUCTURE
1. Intro
2. Verse
3. Chorus
4. Verse
5. Chorus
6. Bridge
7. Outro

________________________________________________________________________________________

REJECTED -Tablature


   INTRO
e-|-----------------------------------------------------------------------------|
B-|-----------------------------------------------------------------------------|
G-|-9-----------------9----------------99999999-----------99999999--------------|
D-|-9-(bass)-999-777--9-(bass)-999-777-99999999-9999-7777-99999999-9999-7777--9-|
A-|-7--------999-777--7--------999-777-77777777-9999-7777-77777777-9999-7777--9-|
E-|----------777-555-----------777-555----------7777-5555----------7777-5555--7-|

   for Tim's higher part in the intro, play something like this over and over
e-|----------|
B-|-7--7--7--|
G-|-9^-9^-9^-|

   VERSE 
e-|------------------------------------------------------------------------|
B-|------------------------------------------------------------------------|
G-|------------------------------------------------------------------------|
D-|-99999999-55555555------------------99999999-55555555-------------------|
A-|-77777777-33333333-5555555-77777777-77777777-33333333-55555555-77777777-|
E-|-------------------3333333-55555555-------------------33333333-55555555-|
    p.m.------------------------------------------------------------------

   CHORUS
e-|------------------------------------------------------------------------------------|
B-|------------------------------------------------------------------------------------|
G-|-9999-5555-----------9999-5555-----------9999-5555-----------9999-5555--------------|
D-|-9999-5555-5555-7777-9999-5555-5555-7777-9999-5555-5555-7777-9999-5555-5555-7777--9-|
A-|-7777-3333-5555-7777-7777-3333-5555-7777-7777-3333-5555-7777-7777-3333-5555-7777--9-|
E-|-----------3333-5555-----------3333-5555-----------3333-5555-----------3333-5555--7-|

   INTERLUDE
e-|-0000000000000000-------------------0000000000000000-------------------|
B-|-0000000000000000-44444444-22222222-0000000000000000-44444444-22222222-|
G-|-1111111111111111-44444444-22222222-1111111111111111-44444444-22222222-|
D-|-2222222222222222-44444444-22222222-2222222222222222-44444444-22222222-|
A-|-2222222222222222-22222222-00000000-2222222222222222-22222222-00000000-|
E-|-0000000000000000-------------------0000000000000000-------------------|

   BRIDGE (Matt singing)
e-|---------------------------------------------------------------------------------|
B-|---------------------------------------------------------------------------------|
G-|---------------------------------------------------------------------------------|
D-|-99999999-----------99999999-----------99999999-----------99999999-------------9-|
A-|-77777777-9999-7777-77777777-9999-7777-77777777-9999-7777-77777777-9999-77777--9-|
E-|----------7777-5555----------7777-5555----------7777-5555----------7777-55555--7-|

  development and support by
dmitry ivanov