rock
 
|tablatures   |lyrics   |discussion forums   |more tabs @ XGuitar.com

Rancid tabs

Red Hot Moon guitar tab

intro
e------------------------------------------------------------------------
b----------------------5----5-------------------------------5------------
g-------5-5------5--7b---7b---7b-7bp5----5-5--------5----7b---7--5----------
d---5h7------5h7----------------------5-------7-5h7----------------5-----
a-----------------------------------------------------------------------
e-----------------------------------------------------------------------



rest of song(not positive thru all the effects)
e---3---1---3-----------------------------------------
b---5---1---3-----------------------------------------
d---5---2---4-----------------------------------------
g---5---3---5-----------------------------------------
a---3---3---5-----------------------------------------
e-------1---3----------------------------------------
  development and support by
dmitry ivanov