rock
 
|tablatures   |lyrics   |discussion forums   |more tabs @ XGuitar.com

Rancid tabs

Red Hot Moon bass tab

Song : Red Hot Moon
Band : Rancid
Album : Indestructible
Tabbed By : Lucky (Lucky.Bassiste@wanadoo.fr)

Chorus
G----------------------------------|X2|
D---------3-2-0---5-3-2---3-2-0----|X2|
A-3-2-0---------33------33------22-|X2|
E-------33-------------------------|X2|

Verses
G----------------------------------|X2|---222222---020---|X3|------------------
D---------333533----------3335330--|X2|-00------333---3--|X3|---------55555320-
A-00000000------345553530--------3-|X2|----------------3-|X3|-55550505---------
E------------------------3---------|X2|------------------|X3|------------------

Bass Solo
G------------------------------------------------------------------
D---------333232345553532-3332320------2--333232345-------0202-----
A-33333333---------------3-------233333-32-------------023----30---
E--------------------------------------------------0123---------31-

No Bass at the beginning of the rap verse

Rap Verse (begin at 2:42) (liten to the song for the rythm)
G-5420---|--------------------------------------------------------------
D-----320|-------------320-5550---------532-----------------555500------
A--------|33333333--------3----------------23333--3---------------------
E--------|---------------------3333-------------33------1012------3-----

G---------------------------------------------------------------------------
D-2520-------------------------------------------320------5553322/5875--0---
A-----3333--3------------------------3-03333--3-----3-----------------87-23-
E---------33----0101---1333123---0101-3-----33------------------------------

Outro (begin at 3:07) (the same as the rap verse)
G---------------------------------------------------------------
D--------------320-5550---------532-----------------555500------
A-33333333--------3----------------23333--3---------------------
E----------------------3333-------------33------1012------3-----

G---------------------------------------------------------------------------
D-2520-------------------------------------------320------5553322/5875--0---
A-----3333--3------------------------3-03333--3-----3-----------------87-23-
E---------33----0101---1333123---0101-3-----33------------------------------
  development and support by
dmitry ivanov