rock
 
|tablatures   |lyrics   |discussion forums   |more tabs @ XGuitar.com

Rancid tabs

Reconciliation bass tab

Band: Rancid
Song: Reconciliation
Album: 2000
Tabbed By: Erik Stromberg

Intro
G ------
D ------
A ------
E -4-3>-

Verse
G ---------------------------------
D -----------------3-3-3-3---------
A -3-3-3-3-1-1-1-1---------3-3-3-3- X4
E ---------------------------------

Chorus	
G -----------------------------------------------------------------
D -3-3-3-3-3-3-3-3---------4-4-3-2-3-3-3-3-3-3-3-3---------4-4-3-2-
A -----------------3-3-3-3-------------------------3-3-3-3---------
E -----------------------------------------------------------------

G -----------------------------------------------------
D -3-3-3-3-3-3-3-3-----------------5-5-3-3-2-2-0-0-0-0-
A -----------------3-3-3-3-3-3-3-3---------------------
E -----------------------------------------------------

And then

Verse x4
Chorus

Riff
G ---------6-7-6---
D ---4-5-7-------7-
A -5--------------- X8 play this part fast
E -----------------

Then
Chorus

And end the song on A -3-
  development and support by
dmitry ivanov