rock
 
|tablatures   |lyrics   |discussion forums   |more tabs @ XGuitar.com

Rancid tabs

Poison guitar tab

By Jonathan Hol


Rancid the worlds best punk band EVER!!!!!!!!!!!!

Verse1:
     C      E       A     F
   |---------------------------|e 
   |---------------------------|B 
   |--5-----9-----2------------|G 
   |--5-----9-----2------3-----|D 
   |--3-----7-----0------3-----|A 
   |---------------------1-----|E

     C          E                 A
Like Chauncer's Canterbury Tales, When Three Men Find A Pot Of Gold
           F
And End Up Killing One Another In The Name Of Greed!
                          
Chorus:  

   |---------------|-----------------|------------------|---------------|e 
   |---------------|-----------------|------------------|---------------|B 
   |-------5-------|-------9---------|--------2---------|---------------|G 
   |-------5-------|-------9---------|--------2---------|-------3-------|D 
   |-------3-------|-------7---------|--------0---------|-------3-------|A 
   |---------------|-----------------|------------------|-------1-------|E
   Some People          Are               Poison
   Under My Skin       Like               Opium
   And I Stare       In Their Eyes       To Annoy Them
   Oh they're           Poison,         Yeah they're           Poison.

Verse2:
C             E            A                                      F
Admissions Of Liabilities, I'm Living In My Own Private Cold War, In A Room Full Of  
                         (Pick Scrape)
Spies And I Cant Find The Door  

Chorus:

   |---------------|-----------------|------------------|---------------|e 
   |---------------|-----------------|------------------|---------------|B 
   |-------5-------|-------9---------|--------2---------|---------------|G 
   |-------5-------|-------9---------|--------2---------|-------3-------|D 
   |-------3-------|-------7---------|--------0---------|-------3-------|A 
   |---------------|-----------------|------------------|-------1-------|E
    Some People           Are               Poison
    Under My Skin        Like               Opium
    And I Stare      In Their Eyes       To Annoy Them
    Oh they're          Poison,          Yeah they're         Poison.

Verse3:
C                                       E                                 
The Violent Aspects Of The Tatooed Man. Let Me Respond To That If I Can, 
A                                        F
Illuminated Manuscripts Written By Hand. Accusations Have Been Made From The Very Beginning.
  
Chorus:  

   |---------------|-----------------|------------------|---------------|e 
   |---------------|-----------------|------------------|---------------|B 
   |-------5-------|-------9---------|--------2---------|---------------|G 
   |-------5-------|-------9---------|--------2---------|-------3-------|D 
   |-------3-------|-------7---------|--------0---------|-------3-------|A 
   |---------------|-----------------|------------------|-------1-------|E
    Some People           Are               Poison
    Under My Skin        Like               Opium
    And I Stare      In Their Eyes       To Annoy Them
    Oh they're          Poison,          Yeah they're         Poison.

C      E       A       F
                        Yeah!

C      E      A       F
           You're ***in'

C..............
Poison

Outro:
C.....B......Bb.....A
  development and support by
dmitry ivanov