rock
 
|tablatures   |lyrics   |discussion forums   |more tabs @ XGuitar.com

Rancid tabs

Poison bass tab

--------------------------------------------------------------------------------------------------------------------------------------------
POISON- Rancid 
--------------------------------------------------------------------------------------------------------------------------------------------

By:  T.J. 

This song is also on Punk-o-rama 5.  It's a really good song.  One of the best songs 
on the new album. Rancid's new album is really great, I recommend you getting it!! 
Some people tabbed this wrong, but I figured it out.  But I'm not that sure about 
the verse but it sounds right.

Verse: *=hit many times
G|---------------------5-5-5-7-9-7-9-7-5---5------------5-5-5-5----------------------------| 
D|---------5-7-7-7-7----------------------7-7-3-3-3-3-----------7-6-5----------------------| 
A|-3*--7*------------------------------------------------------------------8-7-6-5---------| 
E|-----------------------------------------------------------------------------------------| 

Chorus:
G|-------------------------------------------------------------------------| 
D|-------------------------------------------------------------------------| 
A|-3-3-3-3-----------------------------------------------------------------| 
E|----------0-0-0-0-5-5-5-5-1-1-1-1----------------------------------------| 

Ending:
G|---------------------------------------------------------------------------| 
D|---------------------------------------------------------------------------| 
A|--3-2-1-0------------------------------------------------------------------| 
E|---------------------------------------------------------------------------|
  development and support by
dmitry ivanov