rock
 
|tablatures   |lyrics   |discussion forums   |more tabs @ XGuitar.com

Rancid tabs

Otherside guitar tab

Tuning: Standard (E A D G B E)
Lars Frederiksen: Guitar 1
Tim Armstrong: Guitar 2

GREAT SONG OFF INDESTRUCTIBLE

Intro  (guitar 1)
E|---------------------------------------------------------------------------||
B|---------------------------------------------------------------------------||
G|-99999999----------99999999----------99999999------------------------------||
D|-99999999-99999999-99999999-77777777-99999999-99999999--7777777777777777---||
A|-77777777-99999999-77777777-77777777-77777777-99999999--7777777777777777---||
E|----------77777777----------55555555----------77777777--5555555555555555---||
pickslide with guitar 2

repeat intro with 2 guitars
Then (2 guitars)

Intro pt.2
E|--------------------------------------------------||
B|--------------------------------------------------||
G|-11-11-11-11-11-11-11-11-11-11-11-11-11-11-11-11--||
D|-11-11-11-11-11-11-11-11-11-11-11-11-11-11-11-11--||
A|-9--9--9--9--9--9--9--9--9--9--9--9--9--9--9--9---||
E|--------------------------------------------------||

Verse x2   (2 guitars)


E|---------------------------------------------------------------------------||
B|---------------------------------------------------------------------------||
G|-99999999----------99999999-------9999-------------------------------------||
D|-99999999-99999999-99999999-77-99-9999-------------------------------------||
A|-77777777-99999999-77777777-77-99-7777-------------------------------------||
E|----------77777777----------55-77------------------------------------------||
-----------------------------------pm-------------------------------------------
Chorus    (2 guitars)


E|---------------------------------------------------------------------------||
B|---------------------------------------------------------------------------||
G|-6666-------------------------------------------22222222-------------------||
D|-6666-6666-7777-2222-------x3 then -44-66-77-99-22222222-------------------||
A|-4444-6666-7777-2222----------------44-66-77-99-00000000-------------------||
E|------4444-5555-0000----------------22-44-55-77----------------------------||

Then verse again, then Intro again, Intro part 2, then end on E
  development and support by
dmitry ivanov