rock
 
|tablatures   |lyrics   |discussion forums   |more tabs @ XGuitar.com

Rancid tabs

Olympia WA guitar tab

OLYMPIA WA.


Intro:

        C     D    G    C (x3) C     G     C     D
e-------3-------------------------------------------|     
B---1h3-3-1-1-3333-0000-1-(x3)-5-5-3-5-5-3-5-5-5-3--|
G---------------------------------------------------|  


[INTRO] (x2)

VERSE (palm-muted):

G                             C
Hangin' out with Lars down on 6th street
                      G
He knew that I was in trouble
                            D
I was feeling much like the devil
                                           G
There was something burning deep inside of me

                      C
Ran into three Puerto Ricans
                           G
These girls took us to the funhouse
         D               G                DDDDDDD
Where we played a lonely pinball machine


CHORUS:

C              D         G        C
Hangin' on the corner of 52nd and Broadway
C           D      G                       C
Cars passin by but none of them seem to go my way
C        D            G                 C
New York City, well I wish I was on the highway
C(pm) G(pm)   D(pm)
Baa - ack to Olympia...


VERSE (palm-muted):

G                            C
I'm having a hard time understanding
                  G
It gets all too demanding
                         D
She's all gone and I'm stranded
                                 G
Something burning deep inside of me

                    C
All I know it's 4 o'clock and
                       G
She ain't never showed up and
  D                         G                 DDDDDDD
I watched a thousand people go home from work   Yeah!


[CHORUS] (Hangin' on the corner...)

SOLO:

 ^ = bend up

e|--15-15--15--15-15--15-18-18-18-18--15--15-----------------------------------|
B|--15-15--15--15-15--15-17-17-17-17--15--15-----------------------------------|
G|-------------------------------------------17-15-17-17^--17-15--------15-17--|
D|---------------------------------------------------------------17--17--------|
A|-----------------------------------------------------------------------------|
E|-----------------------------------------------------------------------------|

e|--15-15--15--15-15--15-18-18-18-18--15--15-----------------------------------|
B|--15-15--15--15-15--15-17-17-17-17--15--15-----------------------------------|
G|-------------------------------------------17-15-17-17^--17-15--------15-17--|
D|---------------------------------------------------------------17--17--------|
A|-----------------------------------------------------------------------------|
E|-----------------------------------------------------------------------------|

e|-----------------------------------------------------------------------|
B|-----------------------------------------------------------------------|
G|--17^---17^--17-15------------------15-17-15-17^-----------------------|
D|-------------------17--17-17-17-17-------------------------------------|
A|-----------------------------------------------------------------------|
E|-----------------------------------------------------------------------|

e|------------------------------------------------------------------------|
B|------------------------------------------------------------------------|
G|--17^--17^-17-15-/19-19-19-19-19-19-19-19-19-19-19-19-19-19-17\---------|
D|------------------------------------------------------------------------|
A|------------------------------------------------------------------------|
E|------------------------------------------------------------------------|

VERSE (palm-muted):

G                      C
How many times will it take me
             G
Before I go crazy
              D
Before I lose everything
                                 G
Something burning deep inside of me

                      C
Ran into three Puerto Ricans
                           G
Those girls took us to the fun house
D                   G          DDDDDDD
I don't want to be alone again

[CHORUS] (Hangin' on the corner...)

[INTRO] (x2)
             
   
:---------------------------------------------------:
|Corrections/additional transcriptions are welcome. |
|Send them to: 'punk.tabs@telia.com'                |
:---------------------------------------------------:
|Transcribed by 'Sean'                              |
|Solo tab by 'Steve'                                |
|Corrections by Andreas Karlsson                    |
:---------------------------------------------------:
|The Complete Rancid Guitar Tab Compilation         |
|(http://hem1.passagen.se/ak5/rancid/)              |
:---------------------------------------------------:

Last revised: January 31, 1999.
  development and support by
dmitry ivanov