rock
 
|tablatures   |lyrics   |discussion forums   |more tabs @ XGuitar.com

Rancid tabs

Old Friend guitar tab

OLD FRIEND


     Bm  D   A   E   F#m
e|---2---x---5---x---9---|
B|---3---7---5---9---10--|
G|---4---7---6---9---11--|
D|---4---7---7---9---11--|
A|---2---5---7---7---9---|
E|---x---x---5---x---x---|


Intro riff:

      Bm        D     Bm        D     Bm        D    A         E
e|-------------------------------------------------2-0--2-0--2-0--2-0--|
B|---------------------------------------------------------------------|
G|--4~-4--4-4-2-----4~-4--4-4-2-----4~-4--4-4-2------------------------|
D|--------------4---------------4---------------4----------------------|
A|---------------------------------------------------------------------|
E|---------------------------------------------------------------------|
   (4~ = tremolo pick that note)


[INTRO] (x2)


Chorus:

A            E
Good morning heartache
               F#m                  D
You're like an old friend, come to see me again
A            E
Good morning heartache
               F#m                  D
You're like an old friend, come to see me again


Verse:

A     E            F#m        D
Wake up, you're in Cleveland again
       A     E         F#m   D
It's a solid line that never ends
      A      E            F#m     D
I got stories that you'll never believe
      A        E            F#m        D
And I know it, I wear it, I wear it on my sleeve

A             E               F#m        D
There must be something 'bout you that I liked
          A            E                 F#m             D
But right here in this rain, you know it just don't seem right
  A         E      F#m   D
I always go out, I never hide
       A        E             F#m      D
But in Cleveland, I should've stayed inside


[CHORUS] (Good morning heartache...)


Verse:

A    E     F#m      D
Justify my love for you
      A            E            F#m       D
And I know it runs deep through your body too
         A         E          F#m    D
From the cold blacktop to the hot concrete
       A       E       F#m       D
In the old tin van, it ain't so sweet


[CHORUS] (Good morning heartache...)

[INTRO] (x2)


Interlude:
              A5    E5  F#5  D5
Somewhere in America       Through...
    A5     E5    F#5   D5
The city at night
A5       E5         F#5   D5
We were far from home
         A5  E5          F#5  D5
But you know, it's gonna be alright


[SOLO] (missing - Play under chorus chords)


Verse:

      A             E            F#m        D
The unfortunate get preyed on by vultures' eyes
 A E              F#m        D
86 cents in these pockets of mine
        A       E              F#m     D
You can take my money, you can take my time
        A             E                  F#m    D
But you can't take my heart, it's in the city behind


[CHORUS] (Good morning heartache...)


Outro (w/organ??):

A   E   F#m  D
A   E   F#m  D
A   E   F#m  D

A5  E5  F#5  D5  A5  (strike each chord once)

:---------------------------------------------------:
|Corrections/additional transcriptions are welcome. |
|Send them to: 'punk.tabs@telia.com'                |
:---------------------------------------------------:
|Intro transcribed by Andreas Idebrant              |
:---------------------------------------------------:
|The Complete Rancid Guitar Tab Compilation         |
|(http://hem1.passagen.se/ak5/rancid/)              |
:---------------------------------------------------:

Last revised: January 30, 1999.
  development and support by
dmitry ivanov