rock
 
|tablatures   |lyrics   |discussion forums   |more tabs @ XGuitar.com

Rancid tabs

New Dress guitar tab

NEW DRESS

    E   B   A   G#  D   F#  B2
e|-----------------------------|
B|-----------------------------|
G|--9---------------7-------4--|
D|--9---9---7---6---7---4---4--|
A|--7---9---7---6---5---4---2--|
E|------7---5---4-------2------|


INTRO:

Rythm guitar:      E
               e|-----------------------------------|
Lead guitar :  B|--0---3---0--5---0--3--0--5--0--5--| [x2]
               G|-----------------------------------|

                   B
               e|-----------------------------------|
               B|--0---4---0--7---0--4--0--7--0--7--|
               G|-----------------------------------|

                   B
               e|-----------------------------------|
               B|--0---4---0--7---0--7--0--7--0--7--|
               G|-----------------------------------|


[Intro] (x2)
Ah no!
No no! 

Yeah!

       A                        G#
With a gleaming success, with a different chance
  E                            D
Religious indifference mixed between the lines
F#
Territorial company they legitimize
     B2
Persecution deform, enterprise now

    A                 G#
The U.N. is called to buffer it all
    E                         D
The problem is spreading international
     F#
Like Ireland's Belfast it's coming to be
  B2
A brand new key

E
Working class girl puts her money to the test... Yeah
      B
She's got a new dress, she's gonna look her best
E
Yugoslavia's been blown to bits... Yeah
      B
She's got a new dress, she's lookin' to the west

     A                       G#
Well entertain the idea of a peaceful end
E             D
??? takes all ???
     F#
Of a world which is seen the citizens die
          B2
While the innocent children play near fire now

     A                                G#
When I'm not getting through, and see evidence
 E                 D
Another truth with permanence
    F#
The time for civil war is the sooner I live
    B2
The chivalrous ones are never represented

[Intro] (x2)

E
Working class girl puts her money to the test... Yeah
      B
She's got a new dress, she's gonna look her best
E
Yugoslavia's been blown to bits... Yeah
      B
She's got a new dress, she's lookin' to the west

A          G#
??? people ???
    E                              D
The methods of the separatists are dastardly
F#
Try to cleanse the hands of the murdering
        B2
But the advantage of guilt is lingering

A                   G#
Shadows of soldiers lay nearby
     E                         D
The dead ones finally reach a compromise
       F#
The consumption of war lies in Bosnia
       B2                             E
The consumption of war lies in Bosnia

:---------------------------------------------------:
|Corrections/additional transcriptions are welcome. |
|Send them to: 'punk.tabs@usa.net'                  |
:---------------------------------------------------:
|Transcribed by 'Bjorn Inge Nygaard' and 'Melissa'  |
|Most of the lyrics figured out by 'Funky Jane'     |
:---------------------------------------------------:
|The Complete Rancid Guitar Tab Compilation         |
|(http://hem1.passagen.se/ak5/rancid/)              |
:---------------------------------------------------:
  development and support by
dmitry ivanov