rock
 
|tablatures   |lyrics   |discussion forums   |more tabs @ XGuitar.com

Rancid tabs

Motorcycle Ride guitar tab

MOTORCYCLE RIDE


     F    F#   G    A    A#   B    C    D#
e|---X----X----X----X----X----X----X----X----|
B|---X----X----X----2----X----X----X----X----|
G|---X----X----X----2----3----4----5----8----|
D|---3----4----5----2----3----4----5----8----|
A|---3----4----5----0----1----2----3----6----|
E|---1----2----3----X----X----X----X----X----|


INTRO RIFF:

   C   D#   C B A# A G  F# 
e|-8---11---8-8-11---11----|
B|-8---11---8-8-11---11----|
G|-------------------------|
D|-------------------------|
A|-------------------------|
E|-------------------------|

   C                           F
e|---------------------------------------------------------|
B|---------------------------------------------------------|
G|---------------------------------------------------------|
D|-10-10-8-8-7-7-10-10-8-8-7-7-10-10-8-8-7-7-10-10-8-8-7-7-| x2
A|---------------------------------------------------------|
E|---------------------------------------------------------|

   A#                C
e|-6-6-6-6-8-6-6-6-6-6-8-8-8-8-8-8-11-8-8-8-|
B|-6-6-6-6-8-6-6-6-6-6-8-8-8-8-8-8-10-8-8-8-|
G|------------------------------------------|
D|------------------------------------------|
A|------------------------------------------|
E|------------------------------------------|

   A#                  C   D#   C B A# A G  F#
e|-6-6-6-6-8-6-6-6-6-6-8---11---8-8-11---11----|
B|-6-6-6-6-8-6-6-6-6-6-8---11---8-8-11---11----|
G|---------------------------------------------|
D|---------------------------------------------|
A|---------------------------------------------|
E|---------------------------------------------|

F                                 C
If you wanna make a move then you better come in
           Bb                    F
It's just ability to reason that wears so thin
F                        C
Living and dying and the stories that are true
    Bb                       F
The secret to a good life is knowing when you're through...

(same chords for rest of verse)

Bb
Sarah ceased existing long before she died

C          D#            C B A# A  G  F# F
A fifth of bourbon and a motorcycle      ride

   F                                 C
...If you wanna make a move then you better come in
           Bb                    F
It's just ability to reason that wears so thin
F                                 C
If you wanna make a move then you better come in
           Bb                    F
It's just ability to reason that wears so thin

Bb
Sarah ceased existing long before she died

e|-8---------11----------8-8--11-11-|
B|-8---------11----------8-8--11-11-|
G|----------------------------------|
D|----------------------------------|
A|----------------------------------|
E|----------------------------------|

   C          D#            C B A# A  G  F# F
   A fifth of bourbon and a motorcycle      ride

(INTRO RIFF) then hit "F" once (end)

:---------------------------------------------------:
|Corrections/additional transcriptions are welcome. |
|Send them to: 'punk.tabs@usa.net'                  |
:---------------------------------------------------:
|The Complete Rancid Guitar Tab Compilation         |
|(http://hem1.passagen.se/ak5/rancid/)              |
:---------------------------------------------------:
  development and support by
dmitry ivanov