rock
 
|tablatures   |lyrics   |discussion forums   |more tabs @ XGuitar.com

Rancid tabs

Midnight guitar tab

MIDNIGHT


     G    C    Db   D    E
e|---X----X----X----X----X----|
B|---X----X----X----X----X----|
G|--------5----6----7----9----|
D|---5----5----6----7----9----|
A|---5----3----4----5----7----|
E|---3----X----X----X----X----|

Db Db Db Db Db Db Db Db

Intro riff:

e-------------------------------------------
B-------------------------------------------
G-7-7-10-10-10-7-7-5-5-7-7-10-10-10-7-7-6-6-
D-------------------------------------------
A-------------------------------------------
E-------------------------------------------

(play over a G chord a bunch of times)

(strike each once:)
G D C

G                          C
Midnight I know where I am that's right I know where I'm going
D                     G
Shut down vacant city ghost town tensions rising
G                             C
Kick kick kick the ground and look look look around and
D    G
Oh...affairs of the nation 

(hold G) D             G
When the Pressure came down
C         G
Sustain authority

(strike each once:)
G D C

G                     C
Midnight I know I can that's right I ain't broken
D                     G
Shut down vacant city ghost town tensions rising
G                           C
Kick kick kick the door and look look look around and
D       G
Affairs affairs of the nation

(hold G) D             G
When the Pressure came down
C         G
Sustain authority

(strike each once:)
G D C

G E C  e----------------- x2
       B-----------------
       G-5-7-5---5-7-5---
       D-------5-------5-
       A-----------------
       E-----------------

(Intro riff)

Db Db Db Db Db Db Db Db
  development and support by
dmitry ivanov