rock
 
|tablatures   |lyrics   |discussion forums   |more tabs @ XGuitar.com

Rancid tabs

MIA guitar tab

LISTED M.I.A. -Plain chords


    B    E    F#   A    Eb   D
e---X----X----X----X----X----X----
B---X----X----X----X----X----X----
G---X----9----X----X----8----7----
D---9----9----4----7----8----7----
A---9----7----4----7----6----5----
E---7----X----2----5----X----X----


Intro riff x2:

e---------------------------------
B-7-7-7-7-8-8-8-8-7-7-7-7-7-5-3-0-
G---------------------------------
D---------------------------------
A---------------------------------
E---------------------------------

B       E  B                E B
Goddamn it man almost had it
B                  E B                    E B
Stuck in the sewer beneath all the maggots
B              E B    
I ain't fooling  I been pursuing
E B                 E     B              E
A way to get out of these dirty old ruins

B   Eb               E                  F#
I'm checking out I'm never coming back again
B   Eb               E          F#
I'm checking out I'm listed M.I.A.

B       E  B                E B
Goddamn it man almost had it
B                      E B                  E B
They threw out the door  calling me a faggot
B            E B
I ain't done I only yet begun
E    B                    E     B              E
West Oakland is the place where I'm coming from

B   Eb               E                  F#
I'm checking out I'm never coming back again
B   Eb               E          F#
I'm checking out I'm listed M.I.A.

e----------------------------------------------
B----------------------------------------------
G---------7-7-7-9-9-7------------7-7-7-9-9-7---
D-7-7-8-9-------------9--7-7-8-9-------------9-
A----------------------------------------------
E----------------------------------------------

e--------------------------------------------------------------------------
B-7-7-7-7-8-8-8-8-7-7-7-7-7-5-3-0-7-7-7-7-8-8-8-8-7-7-7-7-7-5-3-(slide up)-
G--------------------------------------------------------------------------
D--------------------------------------------------------------------------
A--------------------------------------------------------------------------
E--------------------------------------------------------------------------

A      F# B
Oh yeah
A      F# B
Oh yeah
A      F# B
Oh yeah

B A D F#

B       E  B                E
Goddamn it man almost had it
E      B                 E B                E B
Well I did it again yeah I do it outta habit
B       E B              E
I'm numb  it ain't no fun
B                  E        B             E B
I'm less than zero when you add up the sum

play this during the 2nd part of the verse over the chords:

e-7-7-7-0-
B-7-7-7-0-
G---------
D---------
A---------
E---------

B                    E B                     E
I'm checking out yeah  it ain't no doubt yeah
E B                          E     B              E B
A courtship built from anger is to what it amounts
B              E B              E
I almost had it  I almost had it
E B                 E 
I came so close man I almost had it 

B   Eb               E                  F#
I'm checking out I'm never coming back again
B   Eb               E          F#
I'm checking out I'm listed M.I.A.

B   Eb               E                  F#
I'm checking out I'm never coming back again
B   Eb               E          F#   B EEE B
I'm checking out I'm listed M.I.A.

____________________________________________________________

LISTED M.I.A. -Tablature


LISTED MIA - Rancid
By: Matthew Hillier (matt@tinker1.demon.co.uk)

^V = Triad bend
/ = Slide
0 = Open
 
Intro(Guitar 1)
e|--------------------------------------------------------------------|
B|--------------------------------------------------------------------|
G|4---8-----------4---8-----------------------------------------------|
D|4---8---2---4---4---8---2---4---------------------------------------|
A|2---6---2---4---2---6---2---4---------------------------------------|
E|------------2---------------2---------------------------------------|

Lead 1(Guitar 2)
e|--------------------------------------------------------------------|
B|7-----9-7-------7-----9-7-------------------------------------------|
G|9-^-V-----9-7---9-^-V-----9-7---------------------------------------|
D|--------------------------------------------------------------------|
A|--------------------------------------------------------------------|
E|--------------------------------------------------------------------|

Part 1 (Guitars 1 and 2)
                            Play 8x
e|--------------------------------------------------------------------|
B|--------------------------------------------------------------------|
G|------------------9--9--9-------------------------------------------|
D|9--9--9--9--9--9--9--9--9-------------------------------------------|
A|9--9--9--9--9--9--7--7--7-------------------------------------------|
E|7--7--7--7--7--7----------------------------------------------------|
  PM..............

Part 2(Guitars 1 and 2) You will need to figure out the rythum from the
CD
             Play 3x    Finishes on 
e|--------------------------------------------------------------------|
B|--------------------------------------------------------------------|
G|------4------------------------4-----7------------------------------|
D|7--4--4--4---------------------4--7--7--4---------------------------|
A|7--4--2--4---------------------2--7--5--4---------------------------|
E|5--2-----2------------------------5-----2---------------------------|

Outro
e|--------------------------------------------------------------------|
B|--------------------------------------------------------------------|
G|------------------9--9--9-------------------------------------------|
D|9--9--9--9--9--9--9--9--9--9----------------------------------------|
A|9--9--9--9--9--9--7--7--7--9----------------------------------------|
E|7--7--7--7--7--7-----------7----------------------------------------|
  PM..............

 Lead 2
e|--------------------------------------------------------------------|
B|--------------------------------------------------------------------|
G|------------7--7--9--^--9--7----------------------------------------|
D|------7--9--------------------9--7----------------------------------|
A|7--9----------------------------------------------------------------|
E|--------------------------------------------------------------------|

Lead 3
e|7--/1--o--7--/17--o-------------------------------------------------|
B|7--/1--o--7--/17--o-------------------------------------------------|
G|--------------------------------------------------------------------|
D|--------------------------------------------------------------------|
A|--------------------------------------------------------------------|
E|--------------------------------------------------------------------|

Order
-----
Intro with Lead 1
Part 1
Intro only with Guitars 1 and 2
Part 1
Intro only with Guitars 1 and 2
Part 1 with Lead 2
Intro with Lead 1
Part 2
Part 1 with Lead 3
Intro only with Guitars 1 and 2
Outro
  development and support by
dmitry ivanov