rock
 
|tablatures   |lyrics   |discussion forums   |more tabs @ XGuitar.com

Rancid tabs

Memphis bass tab

Artist: Rancid
Song: Memphis
Album: Indestructible
Bassist: Matt Freeman
Tuning: Standard

Intro
G|------------------|
D|------------------|
A|-33333333333333---|
E|----------------3-|

Verse (Timing is weird here)
G|-----------|------------|-------|
D|-----------|repeat that-|-55----|
A|-3-33------|a few times-|----33-|
E|------1-11-|------------|-------|

Chorus
G|----------------------------------------------------------------------------------|
D|----------22222222-3333333-5------------------------------2-3-5555555---555-3-2-0-|
A|-33333333--------------------3333-----------------------5-------------3-----------|
E|----------------------------------5-3-1-3-5555555-33333---------------------------|

-verse
-chorus
-intro

Bridge
G|-------------------------------------------------------4-|
D|-3333333333333333-2222222222222-0-2-3-555555555555-4-7---|
A|---------------------------------------------------------|
E|---------------------------------------------------------|

G|-55555-7------------|
D|---------5555555-7\\-|
A|--------------------|
E|--------------------|

-intro
-verse
-chorus
-intro

Last Time
G|-----------------|
D|-----------------|
A|-3333333333-2-3\\-|
E|-----------------|
  development and support by
dmitry ivanov