rock
 
|tablatures   |lyrics   |discussion forums   |more tabs @ XGuitar.com

Rancid tabs

Loki guitar tab

Song: Loki
Album: Rancid (2000)
Tabbed By: erpi

Intro/Chorus
e-------------
B-------------
G--6---6---9--
D--6-4-6-7-9--
A--4-4-4-7-7--
E----2---5----

Verse
e-------------------------------------------------------------------
B-------------------------------------------------------------------
G--7-7-7-7-7-7-7-7-----------------7-7-7-7-7-7-7-7------------------
D--7-7-7-7-7-7-7-7-6-6-6-6-6-6-6-6-7-7-7-7-7-7-7-7------------------
A--5-5-5-5-5-5-5-5-6-6-6-6-6-6-6-6-5-5-5-5-5-5-5-5----2-3-4-3-2-----
E------------------4-4-4-4-4-4-4-4------------------4-----------4-3-

Verse
e-------------------------------------------------------------------
B-------------------------------------------------------------------
G--7-7-7-7-7-7-7-7-----------------7-7-7-7-7-7-7-7------------------
D--7-7-7-7-7-7-7-7-6-6-6-6-6-6-6-6-7-7-7-7-7-7-7-7------------------
A--5-5-5-5-5-5-5-5-6-6-6-6-6-6-6-6-5-5-5-5-5-5-5-5----2-3--4-3-2----
E------------------4-4-4-4-4-4-4-4------------------4---------------

End on
e----
B----
G--6-
D--6-
A--4-
E----
  development and support by
dmitry ivanov