rock
 
|tablatures   |lyrics   |discussion forums   |more tabs @ XGuitar.com

Rancid tabs

Lock Step And Gone guitar tab

LOCK, STEP & GONE (Version A)


    C#   F#    E    G#   Gb   B    A
e---X----XX----X----X----X---------X----
B---X----XX----X----X----X---------X----
G---6----11----9--------------4---------
D---6----11----9----6----4----4----7----
A---4----09----7----6----4----2----7----
E---X----XX----X----4----2----X----5----


Intro:

C# F# C# (repeat)

C#               F#                     C#
The ending isn't here there's something wrong
C#                   F#                     C#
But it's coming real soon I lock, step, I'm gone
C#                F#                     C#
The feeling isn't fear there's something wrong
C#                       F#                     C#
It's just telling you to move I lock, step, I'm gone

C#                    E               G#          C#
There's a fire on the corner and it's never gonna stop
C#            E            G#        C#
Killer in the neighborhood never got caught
C#        E         G#          C#
I lock my door step out and I'm gone
C#              E             G#          C#
Waiting for the buses but the buses won't come

C#                F#                      C#
All the docks are quiet there's something wrong
C#                          F#                   C#
And there's no ships coming in I lock, step, I'm gone
C#                     F#                     C#
Where there once was a riot there's something wrong
C#                    F#                      C#
There's a whole lotta nothing I lock step I'm gone

C#        E              G#            C#
Stop sign broken and the meter's going down
C#            E           G#              C#
Wild dogs are running themselves into the ground
C#             E              G#        C#
Everything was clear for that moment in time
C#              E    G#         C#
If I don't come back throw me a line

C#               F#    F#  C#
The ending isn't here
C#                   F#    F#  C#
But it's coming real soon 
C#                F#    F#  C#
The feeling isn't fear
C#                       F#    F#  C#
It's just telling you to move

the solo goes something like this i guess:

e---------------------
B---------------------
G-6-8-6-8-6-8-6-8-6-8-
D---------------------
A---------------------
E---------------------

(bass solo)

e-------------------------
B-------------------------
G---6---6---6---6-8-9-8-6-
D-8---8---8---8-----------
A-------------------------
E-------------------------

(bass solo)
rake down 6th string

E B Gb G#
E B Gb G#
E B Gb G# A B

C#        E              G#            C#
Stop sign broken and the meter's going down
C#            E           G#              C#
Wild dogs are running themselves into the ground
C#             E              G#        C#
Everything was clear for that moment in time
C#              E    G#         C#
If I don't come back throw me a line

C#                F#                      C#
All the docks are quiet there's something wrong
C#                          F#                   C#
And there's no ships coming in I lock, step, I'm gone
C#                     F#                     C#
Where there once was a riot there's something wrong
C#                    F#                      C#  (let ring)
There's a whole lotta nothing I lock step I'm gone

______________________________________________________________

LOCK, STEP & GONE (Version B)

     D1  D2  G1  G2   G3  F   A   A#  C
e|---2---X---3---X----X---X---X---X---X----|
B|---2---X---3---X----X---X---X---X---X----|
G|---3---7---0---12---X---X---X---X---X----|
D|---0---7---0---12---5---3---7---8---10---|
A|---0---5---2---10---5---3---7---8---10---|
E|---X---X---3---X----3---1---5---6---8----|

*NOTE: /=# of times note or chord is hit
       F=full bend
       notes in () are fingered but not hit

(Tune 1/2 step down to Eb)

INTRO
D1/// G1 G1/// D1 D1/// G1 G1/// D1

VERSE
D2               G2                      D2               
The ending isn't here (there's something wrong)
D2                   G2                      D2
But it's coming real soon (I lock, step, I'm gone)
D2                G2                      D2
The feeling isn't fear (there's something wrong)
D2                       G2                      D2
It's just telling you to move (I lock, step, I'm gone)

CHORUS
D2                    F               A           G3
There's a fire on the corner and it's never gonna stop
D2            F            A         G3
Killer in the neighborhood never got caught
D2        F          A           G3
I lock my door, step out and I'm gone
D2              G3            A           G3
Waiting for the buses but the buses won't come

SOLO
e|-----10/-----10/-----10/-----10/////-10--
B|-----10/-----10/-----10/-----10/////-10--
G|-12F-----12F-----12F-----12F---------12F- (pause for bass riff)
D|-----------------------------------------
A|-----------------------------------------
E|-----------------------------------------

e|----------------------------------------
B|----------------------------------------
G|----10----10----10----10-12-12F-(12)-10- (pause for bass riff)
D|-12----12----12----12-------------------
A|----------------------------------------
E|----------------------------------------

F////// CG A A//
F////// CG A A//
F////// CG A A// A#////// C//////

OUTRO
D2                    G2                         D2    (repeat a bunch and end on "D2"-let ring)
There's a whole lotta nothing (I lock, step, I'm gone)
  development and support by
dmitry ivanov