rock
 
|tablatures   |lyrics   |discussion forums   |more tabs @ XGuitar.com

Rancid tabs

Lock Step And Gone bass tab

Lock,Step,Gone:
Verse:
G|---------------------------------|
D|---------5-5-5-5-5-5-5-5-4-4-4-4-|
A|-4-4-4-4-------------------------|
E|---------------------------------|

Chorus:
G|-----------------------|---------------6-4---------|
D|-----2-2-6-6-4-4-6-4-2-|-----2-4-6-4-6-----6-4-2-4-|
A|-4-4-------------------|-4-4-----------------------|
E|-----------------------|---------------------------|

Bridge:
G|-----------------|-----------------4h6p4-------------|
D|-----------------|-----2-4-6-4-6-4-------4-2-6-4-2-4-|
A|-4-4-------------|-2-4-------------------------------|
E|-----0-0-4-4-2-2-|-----------------------------------|




G|-----------------|-----------------------------|
D|-----------------|-------2-4-6-4-2-4p6h4-2-----|
A|-4-4-------------|-2-2-4-------------------2-4-|
E|-----0-0-4-4-2-2-|-----------------------------|

G|-----------------------|
D|-----------------------|
A|-----------------6-2-4-|
E|-2/4-4-4-2/4-4-4-------|

-Adam
  development and support by
dmitry ivanov