rock
 
|tablatures   |lyrics   |discussion forums   |more tabs @ XGuitar.com

Rancid tabs

Let's Go bass tab

Rancid
LET'S GO


Intro: (Repeat before and after * 3x)
G:-------------*---------------
D:--------6-4--*---------------
A:--4-7-4-----7*--------5-5-6-7-
E:5------------*5-5-5-5--------
Verse: (Repeat once)
G:---------------------------------------------------------------
D:--------------------------------------------------------7-7-5--
A:----------------5-5-5-5-5-5-5-5-7-7-7-7-7-7-7-7-5-5-5-5-------7
E:5-5-5-5-5-5-5-5------------------------------------------------
When Tim screams something right before the chorus:
E:-0-0-0-0-0-0-0-0-0-0-0-0-0-0-0-0-
Chorus:(Repeat before 3x)
G:---------------*----------------
D:---------------*----------------
A:--------5-5-6-7*----------------
E:5-5-5-5--------*0-0-0-0-0-0-3-4-
"Yeah Yeah Yeah!":
G:------------------------------------------------------------------
D:------------------------------------------------------------------
A:------------------------------------------------------------------
E:-5-5-5-5-5-5-5-4-3-3-3-3-3-3-3-3-2-2-2-2-2-2-2-2-2-0-0-0-0-0-0-0-0
Go back to first part of intro 
Figured out and written by Fidget (bassist of Half Moon)
  development and support by
dmitry ivanov