rock
 
|tablatures   |lyrics   |discussion forums   |more tabs @ XGuitar.com

Rancid tabs

Journey To The End Of The East Bay guitar tab

JOURNEY TO THE END OF THE EAST BAY


   C   Cii G   Gii  Am  Amii F   Fii
e--x---x---x---x----x---x----x---x---
B--x---x---x---x----x---x----x---x---
G--5---x---x---12---x---14---x---10--
D--5---10--5---12---7---14---3---10--
A--3---10--5---10---7---12---3---8---
E--x---8---3---x----5---x----1---x---


BASS INTRO:

e|-----------------------------------------------|
B|-----------------------------------------------|
G|-------------4---4---------6-9-6---------------|
D|---2-3-4-5-5---5---5-5-5/7-------7-3-----------|
A|-3-------------------------------------0-1-2---|
E|-------------------------------------1---------|

e|--------------------------------------------------|
B|--------------------------------------------------|
G|--------------------------------------------------|
D|---2-3-4-5-5-5-5-5-5-5-3-------------2p0----------|
A|-3-------------------------0-1-2-3-3-----3p0------|
E|-------------------------1--------------------3p0-|

e|-----------------------------------------------|
B|-----------------------------------------------|
G|-------------4---4---------6-9-6---------------|
D|---2-3-4-5-5---5---5-5-5/7-------7-3-----------|
A|-3-------------------------------------0-1-2---|
E|-------------------------------------1---------|

e|--------------------------------------------------------|
B|--------------------------------------------------------|
G|--------------------------------------------------------|
D|---2-3-4-5-5-5-5-5-5-5-3-3-3-3-2-2-2-2-0-0-0-0----------|
A|-3---------------------------------------------3p0------|
E|----------------------------------------------------3p0-|


Cii  Gii  Amii  Fii
Cii  Gii  Fii
Cii  Gii  Amii  Fii
Cii  Gii  Fii   


VERSE (muted):

C         G                Am              F
Reconcile to the belief consumed in sacred ground for me
C                     G
There wasn't always a place to go
              Am               F
But there was always an urgent need to belong

C                   G
All these bands and all this people
Am                    F
All these friends and we were equals but
C                 G                   Am     F
What you gonna do when everybody goes on without you


CHORUS (w/lead):    e|--8-8--8-8-8--8--8-8--|
                    B|--8-8--8-8-8--8--8-8--|
                       (listen for timing)

       C          G        Am             F
To the end to the end I'll journey to the end
       C          G        Am             F
To the end to the end I'll journey to the end                                                   
       C   G   Am  F
To the e-e-end e-e-end
       C          G        Am             F
To the end to the end I'll journey to the end

VERSE (muted):

C              G
Started in '87 ended in '89
Am                     F
You got a garage or an amp we'll play anytime
C                          G
It was just the four of us, yeah man the core of us                                                   
Am                    F
Too much attention unavoidably destroyed us

C                 G
Four kids on tour three thousand miles
Am                 F
In a four door car not knowing what was going on
C                       G
You got a million years it would turn out like this
Am               F
Hell no, no premonition could've saved us

[CHORUS (w/lead)]

[INTRO]

VERSE (muted):

C               G        Am               F
Matty came from far away from New Orleans into the East Bay
C                 G
He said this is a Mecca
       Am                       F
I said this ain't no Mecca man, this place is fucked

C                  G              Am             F
Three months go by he had no home he had no food he's all alone
C                  G
Matty said fool me once shame on you
        Am                    F
He said fool me twice he went back to New Orleans

[CHORUS (w/lead)]

ENDING (w/solo (missing)):

CC G G AmAm F FF
CC G G AmAm FF C

:---------------------------------------------------:
|Corrections/additional transcriptions are welcome. |
|Send them to: 'punk.tabs@telia.com'                |
:---------------------------------------------------:
|Transcribed by 'Sean'                              |
|Intro tab by Alex Fleming, corrected by 'Steve'    |
:---------------------------------------------------:
|The Complete Rancid Guitar Tab Compilation         |
|(http://hem1.passagen.se/ak5/rancid/)              |
:---------------------------------------------------:

Last revised: March 19, 1999.
  development and support by
dmitry ivanov