rock
 
|tablatures   |lyrics   |discussion forums   |more tabs @ XGuitar.com

Rancid tabs

Intro guitar tab

INTRO

     C  F  G
 e|--X--X--X--|
 B|--X--X--X--|
 G|--5--X--X--|
 D|--5--3--5--|
 A|--3--3--5--|
 E|--X--1--3--|


C   F G (x2)

C G C F (x3) (The phenomena you are about to witness...)

F G C

C G C F (x3)

F G C

F C G C (x3)

F C G...C... 

F G F C (strike each chord once)


LYRICS (spoken):

The phenomena you are about to witness could well revolutionize your way of thinking
We are presenting startling facts and evidence that take up where explanations leave off
Some of these revelations will very well go against things you have been taught
And perhaps believed all your life
Prepare yourself for the evidence that will follow...


:---------------------------------------------------:
|Corrections/additional transcriptions are welcome. |
|Send them to: 'punk.tabs@usa.net'                  |
:---------------------------------------------------:
|Transcribed by Marky Rebel                         |
|Most of the lyrics figured out by 'Funky Jane'     |
:---------------------------------------------------:
|The Complete Rancid Guitar Tab Compilation         |
|(http://hem1.passagen.se/ak5/rancid/)              |
:---------------------------------------------------:
  development and support by
dmitry ivanov