rock
 
|tablatures   |lyrics   |discussion forums   |more tabs @ XGuitar.com

Rancid tabs

Intro bass tab

Song: Intro
Band: Rancid
Album: Life Won\\'t Wait

Intro
G|----------|
D|----------|
A|-3>-------|
E|----1>-3>-|

Verse
G|-------------|
D|----5>----3>-|
A|-3>----3>----|
E|-------------|

G|----------|
D|-3>-5>----|
A|-------3>-|
E|----------|

Solo
G|-------------------------------------|
D|---7-8-9-10-8-7----------------------|
A|-8--------------10-8-7--------7-8-10-|
E|-----------------------10-8-8--------|

G|------------7-9-10-12-10-9-7-----------|
D|---7-8-9-10------------------10-8-7----|
A|-8----------------------------------10-|
E|---------------------------------------|

G|-------------------------------------|
D|---7-8-9-10-8-7----7-----------------|
A|-8--------------10---10-8-7----------|
E|----------------------------10-8-7-5-|

Outro
G|--------------------------------|
D|----5-5-3-3-2-2-----------------|
A|----------------5-5-3<--------3-|
E|-3>---------------------1-3-1---|


Tabbed By: Ben - SkaBoom4002@gmail.com
  development and support by
dmitry ivanov