rock
 
|tablatures   |lyrics   |discussion forums   |more tabs @ XGuitar.com

Rancid tabs

Injury bass tab

Song: Injury
Band: Rancid
Album: S/T
tabbed by: Keith Mattson


  Intro
G:-----------------------------333-------------------------------
D:------------------------3-55-----------------------------------
A:4-44444-3-33-1-11----------------------------------------------
E:------------------3-333----------------------------------------

  Verse
G:-----------------------------------|---------------------------
D:--22334455443322-55443322-55443322-|-55-03-55-03-55-03-5320---- 
A:33---------------------------------|---------------------------
E:-----------------------------------|---------------------------

  Chorus
G:------------------------------------53-53-5--3-----------------
D:----------00112233221100-----------------------5-3-------------
A:--00112233--------------33221100--3----------------------------
E:11-------------------------------------------------------------

  Chorus
G:--53-53-5--3----------------------------------------53-53-5-3--
D:-------------5-3-----------00112233221100---------------------5-3-5>
A:3------------------00112233--------------33221100-3-------------
E:-----------------11--------------------------------------------


This is a fucking awesome song, and it is a lot easier than it 
sounds, just play fast and it flows very nicely.
Talk to me - keithmattson@hotmail
  development and support by
dmitry ivanov