rock
 
|tablatures   |lyrics   |discussion forums   |more tabs @ XGuitar.com

Rancid tabs

Indestructible guitar tab

hello again, it is i, the almighty ''''LUKE'''', ive tabbed fall back down and arrested at shanghai on the new cd, thats comin out august 22, but ive found other ways to take a little sneek preview at it;),


intro// chourus, chourds
e----------------------------------------------------------------
b----------------------------------------------------------------
g-----------5-----------------------------------------------------
D--7-6--4---5--------------------------------------------------------
a--7-6--4---3--------------------------------------------------------
e--5-4--2-----------------------------------------------------------

e----------------------------------------------------------------
b----------------------------------------------------------------
g--7-7-------------------------------------------------------------
D--7-7-------------------------------------------------------------
a--5-5--10p9p8-10p9p8-10p9p8------------------------------repeat that a few times
e----------------------------------------------------------------


verse
e----------------------------------------------------------------
b----------------------------------------------------------------
g-----7-----------------------------------------------------------
D-----7--7-9--7------------------------------------------------------
a-----5--7-9--7------------------------------------------------------
e--------5-7--5-----------------------------------------------------
  development and support by
dmitry ivanov