rock
 
|tablatures   |lyrics   |discussion forums   |more tabs @ XGuitar.com

Rancid tabs

Indestructible bass tab

Artist: Rancid
Song: Indestructible
Album: Indestructible (2003)

Symbols:
>   repeat note

Chorus 1
G------------------------|-----------------------|
D-----------------4--4-7-|-----------------------|
A-------4------5>--5-----|----4-4-----4-4----5>--|
E-5>-4>--44-2>-----------|-5>--5-5-4>--4-4-2>----|

Then the guitar plays two E chords and a riff twice.
The second time you play:

E-0-0-
during the two powerchords.

Verse (8x)
G------------------|
D------------------|
A-5>-0>-2>-4-0-2-4-|
E------------------|

Chorus 2
G--------------------------------|------------------------|
D-------------------------4--4-7-|------------------------|
A----4--4-7----4-4-----5>--5-----|----4--4-----4-4-----5>-|
E-5>--5-----4>--4-4-2>-----------|-5>--5--5-4>--4-4-2>----|

Then again, the second time the two E chords are played, play:
A-7-7-

- play Verse
- play Chorus 2

At the end, play:

A-7-7-|-7-7-|---|
E-----|-----|-5-|
  development and support by
dmitry ivanov