rock
 
|tablatures   |lyrics   |discussion forums   |more tabs @ XGuitar.com

Rancid tabs

I Am The One bass tab

Rancid-I am the one
CD-Let’s Go
>-play a lot
For the chorus, just play Intro 1.
PLEASE RATE THIS TAB!

Intro 1
G:---------------------------
D:---------------------------
A:-------------5-3-----------
E:-0-3-4-5--3-------5--------

Intro 2
G:------------------------------------
D:------------------------------------
A:-------------------555-3------------
E:-0-3-4-5555-3333-----------5--------

Bridge
G:--------------------------
D:-7-6-5--------5-6-7-------
A:---------7-5--------------
E:--------------------------

Verse
G:---------------------
D:---------------------
A:-------3-555-3-------
E:-555-----------------

Break
G:---------------------------
D:—7>-5—-7>-5----------------
A:--------------7>--5>-------
E:---------------------------

Outro
G:----------------
D:----------------
A:----------------
E:-5-5-5--5-------
  development and support by
dmitry ivanov