rock
 
|tablatures   |lyrics   |discussion forums   |more tabs @ XGuitar.com

Rancid tabs

I Am Forever bass tab

--------------------------------------------------------------------------------
						I AM FOREVER- Rancid 
--------------------------------------------------------------------------------

By:  T.J. (Krazy4krn@aol.com)

Intro:
G|----------------------------------4-6-4-----------------------------------4-| 
D|----------------------4-4-4-4-4-6-------6-4---------------------4-4-4-4-4---| 
A|------------4-4-4-4-4---------------------------------4-4-4-4-4-------------| 
E|--6-6-6-6-6----------------------------------6-6-6-6-6----------------------| 

Verse:  ("I am forever...")
G|---------------------------------------------------------------------------| 
D|----------------0-4-4-4---------------------------------------------------| 
A|-2-2-2-2-2-2------------------------------------------------------------| 
E|---------------------------------------------------------------------------| 

Chorus: >= play many times   ("Doors bust open, Doors slam shut....")
G|-----------------2-3-4-3>------------------------------------------------| 
D|--2-2-2-2-2-2-----------------------------------------------------------| 
A|---------------------------------------------------------------------------| 
E|---------------------------------------------------------------------------|
  development and support by
dmitry ivanov